Cifras e Tablaturas
Circa Waves

Circa Waves

Wake Up

Cifras Cancelar Versão de Impressão
cifras

Circa Waves - Wake Up

fixar na tela  
Exibindo: vídeo-aula ver clipes redimensionar

Tom:

D

ver outros tons
  Intro 
Guitar 1 
(Hit the first chord on an upstroke for timing) 
e|---------------------------|--------| 
B|---------------------------|--------| 
G|-----------------4---4-4-4-|--------| (x4) 
D|-7---7-7-6---6-6-4---4-4-4-|-4------|       
A|-7---7-7-6---6-6-2---2-2-2-|-4------| 
E|-5---5-5-4---4-4-----------|-2------| 

e|--------------------------------------------------------------------------| 
B|--------------------------------------------------------------------------| 
G|-----------------------------------------------------------------4---4-4-4| (x2) 
D|-4-4-4-4-4-4-4-4-4-4-4-4-4-4-4-4-4-4-4-4-4-4-4-4-7---7-7-6---6-6-4---4-4-4| 
A|-4-4-4-4-4-4-4-4-4-4-4-4-4-4-4-4-4-4-4-4-4-4-4-4-7---7-7-6---6-6-2---2-2-2| 
E|-2-2-2-2-2-2-2-2-2-2-2-2-2-2-2-2-2-2-2-2-2-2-2-2-5---5-5-4---4-4----------| 

Guitar 2 
(Repeat until vocals start) 
e|-2-2-2-2-2-2-2-2-2-2-2-2-2-2-2-2-2-2-2-2-2-2-2-2-2-2-2-2-2-2-2-2-2-2-2-2-2-2| 
B|----------------------------------------------------------------------------| 
G|----------------------------------------------------------------------------| 
D|----------------------------------------------------------------------------| 
A|----------------------------------------------------------------------------| 
E|----------------------------------------------------------------------------| 

Verse 
Guitar 1 
(Palm Muted) 
e|-----------------------------------------------------| 
B|-----------------------------------------------------| 
G|-----------------------------------------------------| (x4) 
D|-----------------------------------------------------| 
A|-----------------------------------------------2-2-2-| 
E|-2-2---2-2-2---2-2-2---2-2-2---5-5-5---4-4-4---------| 

Guitar 2 
(Begins after x2 of guitar 1) 
e|------------------------------------------------------|-------| 
B|------------------------------------------------------|-------| 
G|------------------------------------------------------|-2-----| 
D|------------------------------------------------------|-4-----| 
A|------------------------------------------------------|-------| 
E|------------------------------------------------------|-------| 

e|------------------------------------------------------|-------| 
B|-----------------------------------------------3------|-------| 
G|-------------------------------6-------4-------4------|-2-----| (x2) (Move into Pre-Chorus  
D|-------------------------------7-------6--------------|-4-----|       instead of playing 
A|------------------------------------------------------|-------|       last dyad on 2nd time) 
E|------------------------------------------------------|-------| 

Pre-Chorus 
   D U D U D U D U   U   U   U D U   D U D U D U D U   U   U   U D U 
e|---------------------------------|---------------------------------| 
B|-3-3-3-3-3-3-3-3---3---3---3-3-3-|/5-5-5-5-5-5-5-5---5---5---5-5-5-| 
G|-4-4-4-4-4-4-4-4---4---4---4-4-4-|/6-6-6-6-6-6-6-6---6---6---6-6-6-|  
D|-4-4-4-4-4-4-4-4---4---4---4-4-4-|/6-6-6-6-6-6-6-6---6---6---6-6-6-| 
A|---------------------------------|---------------------------------| 
E|---------------------------------|---------------------------------| 

   D U D U D U D U   U   U   U D U   D U D U D U D U D U D U D U D U 
e|---------------------------------|-4-4-4-4-4-4-4-4-4-4-4-4-4-4-4-4-| 
B|-7-7-7-7-7-7-7-7--/9---9---9-9-9-|-5-5-5-5-5-5-5-5-5-5-5-5-5-5-5-5-| 
G|-7-7-7-7-7-7-7-7--/9---9---9-9-9-|-6-6-6-6-6-6-6-6-6-6-6-6-6-6-6-6-| 
D|-7-7-7-7-7-7-7-7--/9---9---9-9-9-|-6-6-6-6-6-6-6-6-6-6-6-6-6-6-6-6-| 
A|---------------------------------|---------------------------------| 
E|---------------------------------|---------------------------------| 

Chorus 
e|-5---5---5---5---5---5---5---5---5---5---5---5---2---2---2---2---| 
B|-5---5---5---5---5---5---5---5---5---5---5---5---3---3---3---3---| 
G|-6---6---6---6---6---6---6---6---6---6---6---6---4---4---4---4---| 
D|-7---7---7---7---7---7---7---7---7---7---7---7---4---4---4---4---| 
A|-7---7---7---7---7---7---7---7---7---7---7---7---3---3---3---3---| 
E|-5---5---5---5---5---5---5---5---5---5---5---5-------------------| 

e|-2---2---2---2---2---2---2---2---2---2---2---2---4---4---4---4---| 
B|-2---2---2---2---2---2---2---2---2---2---2---2---4---4---4---4---| 
G|-2---2---2---2---2---2---2---2---2---2---2---2---4---4---4---4---| 
D|-4---4---4---4---4---4---4---4---4---4---4---4---6---6---6---6---| 
A|-4---4---4---4---4---4---4---4---4---4---4---4---6---6---6---6---| 
E|-2---2---2---2---2---2---2---2---2---2---2---2---4---4---4---4---| 

e|-2---2---2---2---2---2---2---2---2---2---2---2---4---4---4---4---| 
B|-3---3---3---3---3---3---3---3---3---3---3---3---5---5---5---5---| 
G|-4---4---4---4---4---4---4---4---4---4---4---4---6---6---6---6---| 
D|-4---4---4---4---4---4---4---4---4---4---4---4---6---6---6---6---| 
A|-2---2---2---2---2---2---2---2---2---2---2---2---4---4---4---4---| 
E|-----------------------------------------------------------------| 

e|-5-5-5-5-5-5-5-5-5-5-5-5-5-5-5-5-7-7-7-7-7-7-7-7-7-7-7-7-x-x-x-x-| 
B|-7-7-7-7-7-7-7-7-7-7-7-7-7-7-7-7-9-9-9-9-9-9-9-9-9-9-9-9-x-x-x-x-| 
G|-7-7-7-7-7-7-7-7-7-7-7-7-7-7-7-7-9-9-9-9-9-9-9-9-9-9-9-9-x-x-x-x-| 
D|-7-7-7-7-7-7-7-7-7-7-7-7-7-7-7-7-9-9-9-9-9-9-9-9-9-9-9-9-x-x-x-x-| 
A|-5-5-5-5-5-5-5-5-5-5-5-5-5-5-5-5-7-7-7-7-7-7-7-7-7-7-7-7-x-x-x-x-| 
E|-----------------------------------------------------------------| 

Post-Chorus 
Guitar 1 
e|----------------------------------------------------------------------------| 
B|----------------------------------------------------------------------------| 
G|-------------------------------------------------------------------4---4-4-4|  
D|-4-4-4-4-4-4-4-4-4-4-4-4-4-4-4-4-4-4-4-4-4-4-4-4-7---7-7--6---6-6--4---4-4-4| 
A|-4-4-4-4-4-4-4-4-4-4-4-4-4-4-4-4-4-4-4-4-4-4-4-4-7---7-7--6---6-6--2---2-2-2| 
E|-2-2-2-2-2-2-2-2-2-2-2-2-2-2-2-2-2-2-2-2-2-2-2-2-5---5-5--4---4-4-----------| 

Guitar 2 
e|-2-2-2-2-2-2-2-2-2-2-2-2-2-2-2-2-2-2-2-2-2-2-2-2-2-2-2-2-2-2-2-2-2-2-2-2-2-2| 
B|----------------------------------------------------------------------------| 
G|----------------------------------------------------------------------------| 
D|----------------------------------------------------------------------------| 
A|----------------------------------------------------------------------------| 
E|----------------------------------------------------------------------------| 

Verse 
Guitar 1 
(Palm muted) 
e|----------------------------|-----------------------------------------------------| 
B|----------------------------|-----------------------------------------------------| 
G|----------------------------|-----------------------------------------------------| (x2) 
D|----------------------------|-----------------------------------------------------| 
A|-------------------2--------|-----------------------------------------------2-2-2-| 
E|-5--------4-----------------|-2-2---2-2-2---2-2-2---2-2-2---5-5-5---4-4-4---------| 

Guitar 2 
(Palm muted) 
e|-----0-0-------------0-0---------2-2-0-0---------2-2-0-0-| 
B|-2-2-----2-2-----2-2-----2-2-------------2-2-------------| 
G|-------------0-0-------------0-0-------------0-0---------| 
D|---------------------------------------------------------| 
A|---------------------------------------------------------| 
E|---------------------------------------------------------| 

e|-----0-0-------------0-0---------2-2-0-0-------------0-0-| 
B|-2-2-----2-2-----2-2-----2-2-------------2-2-----2-2-----| 
G|-------------0-0-------------0-0-------------0-0---------| 
D|---------------------------------------------------------| 
A|---------------------------------------------------------| 
E|---------------------------------------------------------| 

Pre-Chorus 
   D U D U D U D U   U   U   U D U   D U D U D U D U   U   U   U D U 
e|---------------------------------|---------------------------------| 
B|-3-3-3-3-3-3-3-3---3---3---3-3-3-|/5-5-5-5-5-5-5-5---5---5---5-5-5-| 
G|-4-4-4-4-4-4-4-4---4---4---4-4-4-|/6-6-6-6-6-6-6-6---6---6---6-6-6-|  
D|-4-4-4-4-4-4-4-4---4---4---4-4-4-|/6-6-6-6-6-6-6-6---6---6---6-6-6-| 
A|---------------------------------|---------------------------------| 
E|---------------------------------|---------------------------------| 

   D U D U D U D U   U   U   U D U   D U D U D U D U D U D U D U D U 
e|---------------------------------|-4-4-4-4-4-4-4-4-4-4-4-4-4-4-4-4-| 
B|-7-7-7-7-7-7-7-7--/9---9---9-9-9-|-5-5-5-5-5-5-5-5-5-5-5-5-5-5-5-5-| 
G|-7-7-7-7-7-7-7-7--/9---9---9-9-9-|-6-6-6-6-6-6-6-6-6-6-6-6-6-6-6-6-| 
D|-7-7-7-7-7-7-7-7--/9---9---9-9-9-|-6-6-6-6-6-6-6-6-6-6-6-6-6-6-6-6-| 
A|---------------------------------|---------------------------------| 
E|---------------------------------|---------------------------------| 

Chorus 
e|-5-5-5-5-5-5-5-5-5-5-5-5-5-5-5-5-5-5-5-5-5-5-5-5-2-2-2-2-2-2-2-2-| 
B|-5-5-5-5-5-5-5-5-5-5-5-5-5-5-5-5-5-5-5-5-5-5-5-5-3-3-3-3-3-3-3-3-| 
G|-6-6-6-6-6-6-6-6-6-6-6-6-6-6-6-6-6-6-6-6-6-6-6-6-4-4-4-4-4-4-4-4-| 
D|-7-7-7-7-7-7-7-7-7-7-7-7-7-7-7-7-7-7-7-7-7-7-7-7-4-4-4-4-4-4-4-4-| 
A|-7-7-7-7-7-7-7-7-7-7-7-7-7-7-7-7-7-7-7-7-7-7-7-7-3-3-3-3-3-3-3-3-| 
E|-5-5-5-5-5-5-5-5-5-5-5-5-5-5-5-5-5-5-5-5-5-5-5-5-----------------| 

e|-2-2-2-2-2-2-2-2-2-2-2-2-2-2-2-2-2-2-2-2-2-2-2-2-4-4-4-4-4-4-4-4-| 
B|-2-2-2-2-2-2-2-2-2-2-2-2-2-2-2-2-2-2-2-2-2-2-2-2-4-4-4-4-4-4-4-4-| 
G|-2-2-2-2-2-2-2-2-2-2-2-2-2-2-2-2-2-2-2-2-2-2-2-2-4-4-4-4-4-4-4-4-| 
D|-4-4-4-4-4-4-4-4-4-4-4-4-4-4-4-4-4-4-4-4-4-4-4-4-6-6-6-6-6-6-6-6-| 
A|-4-4-4-4-4-4-4-4-4-4-4-4-4-4-4-4-4-4-4-4-4-4-4-4-6-6-6-6-6-6-6-6-| 
E|-2-2-2-2-2-2-2-2-2-2-2-2-2-2-2-2-2-2-2-2-2-2-2-2-4-4-4-4-4-4-4-4-| 

e|-2-2-2-2-2-2-2-2-2-2-2-2-2-2-2-2-2-2-2-2-2-2-2-2-4-4-4-4-4-4-4-4-| 
B|-3-3-3-3-3-3-3-3-3-3-3-3-3-3-3-3-3-3-3-3-3-3-3-3-5-5-5-5-5-5-5-5-| 
G|-4-4-4-4-4-4-4-4-4-4-4-4-4-4-4-4-4-4-4-4-4-4-4-4-6-6-6-6-6-6-6-6-| 
D|-4-4-4-4-4-4-4-4-4-4-4-4-4-4-4-4-4-4-4-4-4-4-4-4-6-6-6-6-6-6-6-6-| 
A|-2-2-2-2-2-2-2-2-2-2-2-2-2-2-2-2-2-2-2-2-2-2-2-2-4-4-4-4-4-4-4-4-| 
E|-----------------------------------------------------------------| 

e|-5-5-5-5-5-5-5-5-5-5-5-5-5-5-5-5-7-7-7-7-7-7-7-7-7-7-7-7-9-9-9-9-| 
B|-7-7-7-7-7-7-7-7-7-7-7-7-7-7-7-7-9-9-9-9-9-9-9-9-9-9-9-9-9-9-9-9-| 
G|-7-7-7-7-7-7-7-7-7-7-7-7-7-7-7-7-9-9-9-9-9-9-9-9-9-9-9-9-9-9-9-9-| 
D|-7-7-7-7-7-7-7-7-7-7-7-7-7-7-7-7-9-9-9-9-9-9-9-9-9-9-9-9-9-9-9-9-| 
A|-5-5-5-5-5-5-5-5-5-5-5-5-5-5-5-5-7-7-7-7-7-7-7-7-7-7-7-7-7-7-7-7-| 
E|-----------------------------------------------------------------| 

Guitar 2 
e|-9-9-9-9-9-9-9-9-9-9-9-9-9-9-9-9-9-9-9-9-9-9-9-9-9-7-7-7-7-7-7-7-7| 
B|------------------------------------------------------------------| 
G|------------------------------------------------------------------| 
D|------------------------------------------------------------------| 
A|------------------------------------------------------------------| 
E|------------------------------------------------------------------| 

e|-9-9-9-9-9-9-9-9-9-9-9-9-9-9-9-9-9-9-9-9-9-9-9-9-9-10-10-10-10-10-10-10-10| 
B|--------------------------------------------------------------------------| 
G|--------------------------------------------------------------------------| 
D|--------------------------------------------------------------------------| 
A|--------------------------------------------------------------------------| 
E|--------------------------------------------------------------------------| 

e|-9-9-9-9-9-9-9-9-9-9-9-9-9-9-9-9-9-9-9-9-9-9-9-9-9-7-7-7-7-7-7-7-7| 
B|------------------------------------------------------------------| 
G|------------------------------------------------------------------| 
D|------------------------------------------------------------------| 
A|------------------------------------------------------------------| 
E|------------------------------------------------------------------| 

e|-5-5-5-5-5-5-5-5-5-5-5-5-5-5-5-5-7-7-7-7-7-7-7-7-7-7-7-7-7-7-7-7-7| 
B|------------------------------------------------------------------| 
G|------------------------------------------------------------------| 
D|------------------------------------------------------------------| 
A|------------------------------------------------------------------| 
E|------------------------------------------------------------------| 

Break 
Guitar 1 
e|-----------------------------------------------------------------| 
B|-----------------------------------------------------------------| 
G|-----------------------------------------------------------------| (x4) 
D|-7---7---7---7---7---7---7---7---7---7---7---7---7---7---7---7---| 
A|-7---7---7---7---7---7---7---7---7---7---7---7---7---7---7---7---| 
E|-5---5---5---5---5---5---5---5---5---5---5---5---5---5---5---5---| 

Guitar 2 
(Come in on the 4th time of guitar 1) 
e|-------------------------------------------------------------------------| 
B|-5-5-5-5-5-5-5-5-7-7-7-7-7-7-7-7-9-9-9-9-9-9-9-9-10-10-10-10-10-10-10-10-| 
G|-------------------------------------------------------------------------|  
D|-------------------------------------------------------------------------| 
A|-------------------------------------------------------------------------| 
E|-------------------------------------------------------------------------| 

Guitar 1 
e|--------------------------------------------------------------------------| 
B|--------------------------------------------------------------------------| 
G|----------------------------------------------------------------4---4-4-4-|(x2) 
D|-4----------------------------------------------7---7-7-6---6-6-4---4-4-4-|      
A|-4----------------------------------------------7---7-7-6---6-6-2---2-2-2-| 
E|-2----------------------------------------------5---5-5-4---4-4-----------| 

e|--------------------------------------------------------------------------| 
B|--------------------------------------------------------------------------| 
G|-----------------------------------------------------------------4---4-4-4| (x2) 
D|-4-4-4-4-4-4-4-4-4-4-4-4-4-4-4-4-4-4-4-4-4-4-4-4-7---7-7-6---6-6-4---4-4-4| 
A|-4-4-4-4-4-4-4-4-4-4-4-4-4-4-4-4-4-4-4-4-4-4-4-4-7---7-7-6---6-6-2---2-2-2| 
E|-2-2-2-2-2-2-2-2-2-2-2-2-2-2-2-2-2-2-2-2-2-2-2-2-5---5-5-4---4-4----------| 

Guitar 2 
e|-2-2-2-2-2-2-2-2-2-2-2-2-2-2-2-2-2-2-2-2-2-2-2-2-2-2-2-2-2-2-2-2-2-2-2-2-2| 
B|--------------------------------------------------------------------------| 
G|--------------------------------------------------------------------------| (x4) 
D|--------------------------------------------------------------------------| 
A|--------------------------------------------------------------------------| 
E|--------------------------------------------------------------------------| 

Chorus 
e|-5-5-5-5-5-5-5-5-5-5-5-5-5-5-5-5-5-5-5-5-5-5-5-5-2-2-2-2-2-2-2-2-| 
B|-5-5-5-5-5-5-5-5-5-5-5-5-5-5-5-5-5-5-5-5-5-5-5-5-3-3-3-3-3-3-3-3-| 
G|-6-6-6-6-6-6-6-6-6-6-6-6-6-6-6-6-6-6-6-6-6-6-6-6-4-4-4-4-4-4-4-4-| 
D|-7-7-7-7-7-7-7-7-7-7-7-7-7-7-7-7-7-7-7-7-7-7-7-7-4-4-4-4-4-4-4-4-| 
A|-7-7-7-7-7-7-7-7-7-7-7-7-7-7-7-7-7-7-7-7-7-7-7-7-3-3-3-3-3-3-3-3-| 
E|-5-5-5-5-5-5-5-5-5-5-5-5-5-5-5-5-5-5-5-5-5-5-5-5-----------------| 

e|-2-2-2-2-2-2-2-2-2-2-2-2-2-2-2-2-2-2-2-2-2-2-2-2-4-4-4-4-4-4-4-4-| 
B|-2-2-2-2-2-2-2-2-2-2-2-2-2-2-2-2-2-2-2-2-2-2-2-2-4-4-4-4-4-4-4-4-| 
G|-2-2-2-2-2-2-2-2-2-2-2-2-2-2-2-2-2-2-2-2-2-2-2-2-4-4-4-4-4-4-4-4-| 
D|-4-4-4-4-4-4-4-4-4-4-4-4-4-4-4-4-4-4-4-4-4-4-4-4-6-6-6-6-6-6-6-6-| 
A|-4-4-4-4-4-4-4-4-4-4-4-4-4-4-4-4-4-4-4-4-4-4-4-4-6-6-6-6-6-6-6-6-| 
E|-2-2-2-2-2-2-2-2-2-2-2-2-2-2-2-2-2-2-2-2-2-2-2-2-4-4-4-4-4-4-4-4-| 

e|-2-2-2-2-2-2-2-2-2-2-2-2-2-2-2-2-2-2-2-2-2-2-2-2-4-4-4-4-4-4-4-4-| 
B|-3-3-3-3-3-3-3-3-3-3-3-3-3-3-3-3-3-3-3-3-3-3-3-3-5-5-5-5-5-5-5-5-| 
G|-4-4-4-4-4-4-4-4-4-4-4-4-4-4-4-4-4-4-4-4-4-4-4-4-6-6-6-6-6-6-6-6-| 
D|-4-4-4-4-4-4-4-4-4-4-4-4-4-4-4-4-4-4-4-4-4-4-4-4-6-6-6-6-6-6-6-6-| 
A|-2-2-2-2-2-2-2-2-2-2-2-2-2-2-2-2-2-2-2-2-2-2-2-2-4-4-4-4-4-4-4-4-| 
E|-----------------------------------------------------------------| 

e|-5-5-5-5-5-5-5-5-5-5-5-5-5-5-5-5-7-7-7-7-7-7-7-7-7-7-7-7-9-9-9-9-| 
B|-7-7-7-7-7-7-7-7-7-7-7-7-7-7-7-7-9-9-9-9-9-9-9-9-9-9-9-9-9-9-9-9-| 
G|-7-7-7-7-7-7-7-7-7-7-7-7-7-7-7-7-9-9-9-9-9-9-9-9-9-9-9-9-9-9-9-9-| 
D|-7-7-7-7-7-7-7-7-7-7-7-7-7-7-7-7-9-9-9-9-9-9-9-9-9-9-9-9-9-9-9-9-| 
A|-5-5-5-5-5-5-5-5-5-5-5-5-5-5-5-5-7-7-7-7-7-7-7-7-7-7-7-7-7-7-7-7-| 
E|-----------------------------------------------------------------| 

Guitar 2 
e|-9-9-9-9-9-9-9-9-9-9-9-9-9-9-9-9-9-9-9-9-9-9-9-9-9-7-7-7-7-7-7-7-7| 
B|------------------------------------------------------------------| 
G|------------------------------------------------------------------| 
D|------------------------------------------------------------------| 
A|------------------------------------------------------------------| 
E|------------------------------------------------------------------| 

e|-9-9-9-9-9-9-9-9-9-9-9-9-9-9-9-9-9-9-9-9-9-9-9-9-9-10-10-10-10-10-10-10-10| 
B|--------------------------------------------------------------------------| 
G|--------------------------------------------------------------------------| 
D|--------------------------------------------------------------------------| 
A|--------------------------------------------------------------------------| 
E|--------------------------------------------------------------------------| 

e|-9-9-9-9-9-9-9-9-9-9-9-9-9-9-9-9-9-9-9-9-9-9-9-9-9-7-7-7-7-7-7-7-7| 
B|------------------------------------------------------------------| 
G|------------------------------------------------------------------| 
D|------------------------------------------------------------------| 
A|------------------------------------------------------------------| 
E|------------------------------------------------------------------| 

e|-5-5-5-5-5-5-5-5-5-5-5-5-5-5-5-5-7-7-7-7-7-7-7-7-7-7-7-7-7-7-7-7-7| 
B|------------------------------------------------------------------| 
G|------------------------------------------------------------------| 
D|------------------------------------------------------------------| 
A|------------------------------------------------------------------| 
E|------------------------------------------------------------------| 

Outro 
Guitar 1 
e|--------------------------------------------------------------------------|---| 
B|--------------------------------------------------------------------------|---| 
G|-----------------------------------------------------------------4---4-4-4|---| 
D|-4-4-4-4-4-4-4-4-4-4-4-4-4-4-4-4-4-4-4-4-4-4-4-4-7---7-7-6---6-6-4---4-4-4|-4-| 
A|-4-4-4-4-4-4-4-4-4-4-4-4-4-4-4-4-4-4-4-4-4-4-4-4-7---7-7-6---6-6-2---2-2-2|-4-| 
E|-2-2-2-2-2-2-2-2-2-2-2-2-2-2-2-2-2-2-2-2-2-2-2-2-5---5-5-4---4-4----------|-2-| 

Guitar 2 
e|-2-2-2-2-2-2-2-2-2-2-2-2-2-2-2-2-2-2-2-2-2-2-2-2-2-2-2-2-2-2-2-2-2-2-2-2-2| 
B|--------------------------------------------------------------------------| 
G|--------------------------------------------------------------------------| 
D|--------------------------------------------------------------------------| 
A|--------------------------------------------------------------------------| 
E|--------------------------------------------------------------------------| 


************************************ 

| x   Dead note 
| /   Slide up 

************************************ 
  

cifra enviadasem correções
enviado porenviada por:tamamoreira
top 5 | circa waves
top rock'n roll
Outras músicas do artista letras do(a) Circa Waves
Top cifras »Top artistas »
Petaxxon Comunicação Online
Cifras.com.br - Melhor e mais completo site de cifras e tablaturas do Brasil
Mais de 1 milhão de acordes de músicas cadastradas desde 2003
As informações contidas no nosso site são colaborações de seus usuários e podem conter erros, sendo assim, não nos responsabilizamos sobre nenhuma destas.
close
menos
mais
close
Cor dos acordes:

Cor da letra:

 

save
close
close
 
redimensionar