Cifras e Tablaturas
Citizen

Citizen

My Favorite Color

Cifras Cancelar Versão de Impressão
cifras

Citizen - My Favorite Color

fixar na tela  
Exibindo: vídeo-aula ver clipes redimensionar

Tom:

  
Intro 
e|---------------------------------------------------------------------------| 
B|---------------------------------------------------------------------------| 
G|---------------------------------------------------------------------------| 
D|---------------------------------------------------------------------------| 
A|-----------7---------------------------------------------------------------| 
E|-6-6--9-9------------------------------------------------------------------| 

Chorus 
e|---------------------------------------------------------------------------| 
B|---------------------------------------------------------------------------| 
G|---------------------------------------------------------------------------| 
D|-------------------------------------------------------x-x-x-x-x-x---------| 
A|-4-4-4-4-4-4-4-4-4-4-4-4-4-4-4-4---3-3-3-3-3-3-3-3-3---x-x-x-x-x-x---------| 
E|-2-2-2-2-2-2-2-2-2-2-2-2-2-2-2-2---1-1-1-1-1-1-1-1-1---x-x-x-x-x-x---------| 

Verse 
e|---------------------------------------------------------------------------| 
B|---------------------------------------------------------------------------| 
G|---------------------------------------------------------------------------| 
D|---------------------------------------------------------------------------| 
A|-----------7---------------------------------------------------------------| 
E|-6-6--9-9------------------------------------------------------------------| 

Chorus 
e|---------------------------------------------------------------------------| 
B|---------------------------------------------------------------------------| 
G|---------------------------------------------------------------------------| 
D|-------------------------------------------------------x-x-x-x-x-x---------| 
A|-4-4-4-4-4-4-4-4-4-4-4-4-4-4-4-4---3-3-3-3-3-3-3-3-3---x-x-x-x-x-x---------| 
E|-2-2-2-2-2-2-2-2-2-2-2-2-2-2-2-2---1-1-1-1-1-1-1-1-1---x-x-x-x-x-x---------| 

Verse 
e|---------------------------------------------------------------------------| 
B|---------------------------------------------------------------------------| 
G|---------------------------------------------------------------------------| 
D|---------------------------------------------------------------------------| 
A|-4---3---2---9-------------------------------------------------------------| 
E|-2---1---0---7-------------------------------------------------------------| 

e|---------------------------------------------------------------------------| 
B|---------------------------------------------------------------------------| 
G|---------------------------------------------------------------------------| 
D|---------------------------------------------------------------------------| 
A|-----------7---------------------------------------------------------------| 
E|-6-6--9-9------------------------------------------------------------------| 

Chorus 
e|---------------------------------------------------------------------------| 
B|---------------------------------------------------------------------------| 
G|---------------------------------------------------------------------------| 
D|-------------------------------------------------------x-x-x-x-x-x---------| 
A|-4-4-4-4-4-4-4-4-4-4-4-4-4-4-4-4---3-3-3-3-3-3-3-3-3---x-x-x-x-x-x---------| 
E|-2-2-2-2-2-2-2-2-2-2-2-2-2-2-2-2---1-1-1-1-1-1-1-1-1---x-x-x-x-x-x---------| 
  
Bridge  
Guitar 1 
e|---------------------------------------------------------------------------| 
B|---------------------------------------------------------------------------| 
G|---------------------------------------------------------------------------| 
D|---------------------------------------------------------------------------| 
A|-----------9-9-8-8-7-7-7-7-------------------------------------------------| 
E|--6-6-6-6------------------7-7-7-7-----------------------------------------| 

Guitar 2 
e|---------------------------------------------------------------------------| 
B|---------------------------------------------------------------------------| 
G|---------------------------------------------------------------------------| 
D|---------------------------------------------------------------------------| 
A|-8-8-8-8--4-4--3-3--2-2-2-2--9-9-9-9---------------------------------------| 
E|-6-6-6-6--2-2--1-1--0-0-0-0--7-7-7-7---------------------------------------| 

Outro 
e|---------------------------------------------------------------------------| 
B|---------------------------------------------------------------------------| 
G|---------------------------------------------------------------------------| 
D|---------------------------------------------------------------------------| 
A|-----------7---------------------------------------------------------------| 
E|-6-6--9-9------------------------------------------------------------------| 



************************************ 

| x  Dead note 

************************************ 
  

top 5 | citizen
top rock'n roll
Outras músicas do artista letras do(a) Citizen
Top cifras »Top artistas »
Petaxxon Comunicação Online
Cifras.com.br - Melhor e mais completo site de cifras e tablaturas do Brasil
Mais de 1 milhão de acordes de músicas cadastradas desde 2003
As informações contidas no nosso site são colaborações de seus usuários e podem conter erros, sendo assim, não nos responsabilizamos sobre nenhuma destas.
close
menos
mais
close
Cor dos acordes:

Cor da letra:

 

save
close
close
 
redimensionar