Cifras e Tablaturas
Cifras Cancelar Versão de Impressão
cifras

City And Colour - Rain

fixar na tela  
Exibindo: vídeo-aula ver clipes redimensionar

Tom:

Eb

ver outros tons
  
Intro 
Eb|------------------------------------------------------------------| 
Bb|------------------1-------------------------------1---------------| 
Gb|------2-----4-----------4-----2-------2-----4-----------4---2-----| 
Db|------------------------------------------------------------------| 
Ab|--0---0---0---0---0---0---0---0---0---0---0---0---0---0---0---0---| 
Eb|------------------------------------------------------------------| 

Eb|------------------------------------------------------------------| 
Bb|------------1-----------1-----------1-----------1-----------------| 
Gb|--------4---------4-----------0-----------4-----------2---2p0-----| 
Db|------------------------------------------------------------------| 
Ab|------------------------------------------------------------------| 
Eb|--3---3---3---3---3---3---3---3---3---3---3---3---3---3---3---3---| 

Eb|------------------------------------------------------------------| 
Bb|------------------1-------------------------------3p1-------1-----| 
Gb|------2-----4-----------4-----2-------2-----4-----------4---------| 
Db|------------------------------------------------------------------| 
Ab|--0---0---0---0---0---0---0---0---0---0---0---0---0---0---0---0---| 
Eb|------------------------------------------------------------------| 

Eb|------------------------------------------------------------------| 
Bb|------------1-----1h3---1-----1h3---1-----1h3---1-----------------| 
Gb|--4-----4---------------------------------------------2---2p0-----| 
Db|------------------------------------------------------------------| 
Ab|------------------------------------------------------------------| 
Eb|--3---3---3---3---3---3---3---3---3---3---3---3---3---3---3---3---| 

Verse 
Eb|------------------------------------------------------------------| 
Bb|------------------1-------------------------------1---------------| 
Gb|------2-----4-----------4-----2-------2-----2-----------2-----2---| 
Db|------------------------------------------------------------------| 
Ab|--0---0---0---0---0---0---0---0---0---0---0---0---0---0---0---0---| 
Eb|------------------------------------------------------------------| 

Eb|------------------------------------------------------------------| 
Bb|------------------1-----------------------------------------------| 
Gb|------0-----4-----------4-----0-------0-----0-----0-----0-----0---| 
Db|------------------------------------------------------------------| 
Ab|------------------------------------------------------------------| 
Eb|--3---3---3---3---3---3---3---3---3---3---3---3---3---3---3---3---| 

Eb|------------------------------------------------------------------| 
Bb|------------------1-----------------------------------------------| 
Gb|------2-----4-----------4-----2-----------------------------------| 
Db|------------------------------------------------------------------| 
Ab|--0---0---0---0---0---0---0---0---0---0---0---0---0---0---0---0---| 
Eb|------------------------------------------------------------------| 

Eb|------------------------------------------------------------------| 
Bb|------------------1-----------------------------------------------| 
Gb|--------0---4-----------4-----0-------0---0-------0---0---0-------| 
Db|------------------------------------------------------------------| 
Ab|------------------------------------------------------------------| 
Eb|--3---3---3---3---3---3---3---3---3---3---3---3---3---3---3---3---| 

Chorus 
Eb|------------------------------------------------------------------| 
Bb|------------1-----------1-------------------1-----------1---------| 
Gb|------4-----------4-----------4-------4-----------4---------4-----| 
Db|------------------------------------------------------------------| 
Ab|--0---0---0---0---0---0---0---0---0---0---0---0---0---0---0---0---| 
Eb|------------------------------------------------------------------| 

Eb|------------0-----------------------------------------------------| 
Bb|--------1---------3p1---1-----------1-----------1-----------------| 
Gb|--4---------------------------2-----------0h2---------2---2p0-----| 
Db|------------------------------------------------------------------| 
Ab|------------------------------------------------------------------| 
Eb|--3---3---3---3---3---3---3---3---3---3---3---3---3---3---3---3---| 

Eb|------------------------------------------------------------------| 
Bb|------------1-----------1-------------------1-----------1---------| 
Gb|------4-----------4-----------4-------4-----------4---------4-----| 
Db|------------------------------------------------------------------| 
Ab|--0---0---0---0---0---0---0---0---0---0---0---0---0---0---0---0---| 
Eb|------------------------------------------------------------------| 

Eb|------------0-----------------------------------------------------| 
Bb|--------1---------3p1---1-----------1-----------1-----------------| 
Gb|--4---------------------------0h2---------2-----------2---2p0-----| 
Db|------------------------------------------------------------------| 
Ab|------------------------------------------------------------------| 
Eb|--3---3---3---3---3---3---3---3---3---3---3---3---3---3---3---3---| 

Interlude 
Eb|--------0------------------------| 
Bb|------------1---------3----------| 
Gb|----------------------2----------| 
Db|------------------0-------0------| 
Ab|--3---3---3---3------------------| 
Eb|-----------------------------3---| 

Eb|------------------------------------------------------------------| 
Bb|------------------1-------------------------------1---------------| 
Gb|------2-----4-----------4-----2-------2-----4-----------4---2-----| 
Db|------------------------------------------------------------------| 
Ab|--0---0---0---0---0---0---0---0---0---0---0---0---0---0---0---0---| 
Eb|------------------------------------------------------------------| 

Eb|------------------------------------------------------------------| 
Bb|------------1-----1h3---1-----1h3---1-----1h3---1-----------------| 
Gb|--4-----4---------------------------------------------2---2p0-----| 
Db|------------------------------------------------------------------| 
Ab|------------------------------------------------------------------| 
Eb|--3---3---3---3---3---3---3---3---3---3---3---3---3---3---3---3---| 

Eb|------------------------------------------------------------------| 
Bb|------------------1-------------------------------3p1-------1-----| 
Gb|------2-----4-----------4-----2-------2-----4-----------4---------| 
Db|------------------------------------------------------------------| 
Ab|--0---0---0---0---0---0---0---0---0---0---0---0---0---0---0---0---| 
Eb|------------------------------------------------------------------| 

Eb|------------------------------------------------------------------| 
Bb|------------1-----1h3---1-----1h3---1-----1h3---1-----------------| 
Gb|--4-----4---------------------------------------------2---2p0-----| 
Db|------------------------------------------------------------------| 
Ab|------------------------------------------------------------------| 
Eb|--3---3---3---3---3---3---3---3---3---3---3---3---3---3---3---3---| 

Verse 
Eb|------------------------------------------------------------------| 
Bb|------------------1-------------------------------1---------------| 
Gb|------2-----4-----------4-----2-------2-----2-----------2---2-----| 
Db|------------------------------------------------------------------| 
Ab|--0---0---0---0---0---0---0---0---0---0---0---0---0---0---0---0---| 
Eb|------------------------------------------------------------------| 

Eb|------------------------------------------------------------------| 
Bb|------------------1-------------------------------1---------------| 
Gb|--------0---4-----------4-----0-------------------------4-----0---| 
Db|------------------------------------------------------------------| 
Ab|------------------------------------------------------------------| 
Eb|--3---3---3---3---3---3---3---3---3---3---3---3---3---3---3---3---| 

Eb|------------------------------------------------------------------| 
Bb|------------------1-------------------------------1---------------| 
Gb|------2-----4-----------4-----2-------2-----2-----------2-----2---| 
Db|------------------------------------------------------------------| 
Ab|--0---0---0---0---0---0---0---0---0---0---0---0---0---0---0---0---| 
Eb|------------------------------------------------------------------| 

Eb|------------------------------------------------------------------| 
Bb|------------------1-----------------------------------------------| 
Gb|------0-----4-----------4-----0-------0-----0-----0-----0---------| 
Db|------------------------------------------------------------------| 
Ab|------------------------------------------------------------------| 
Eb|--3---3---3---3---3---3---3---3---3---3---3---3---3---3---3---3---| 

Chorus 
Eb|------------------------------------------------------------------| 
Bb|------------1-----------1-------------------1-----------1---------| 
Gb|------4-----------4-----------4-------4-----------4---------4-----| 
Db|------------------------------------------------------------------| 
Ab|--0---0---0---0---0---0---0---0---0---0---0---0---0---0---0---0---| 
Eb|------------------------------------------------------------------| 

Eb|------------0-----------------------------------------------------| 
Bb|--------1---------3p1---1-----------1-----------1-----------------| 
Gb|--4---------------------------0h2---------2-----------2---2p0-----| 
Db|------------------------------------------------------------------| 
Ab|------------------------------------------------------------------| 
Eb|--3---3---3---3---3---3---3---3---3---3---3---3---3---3---3---3---| 

Eb|------------------------------------------------------------------| 
Bb|------------1-----------1-------------------1-----------1---------| 
Gb|------4-----------4-----------4-------4-----------4---------4-----| 
Db|------------------------------------------------------------------| 
Ab|--0---0---0---0---0---0---0---0---0---0---0---0---0---0---0---0---| 
Eb|------------------------------------------------------------------| 

Eb|------------0-----------------------------------------------------| 
Bb|--------1---------3p1---1-----------1-----------1-----------------| 
Gb|--4---------------------------0h2---------0h2---------2---2p0-----| 
Db|------------------------------------------------------------------| 
Ab|------------------------------------------------------------------| 
Eb|--3---3---3---3---3---3---3---3---3---3---3---3---3---3---3---3---| 

Interlude 
Eb|--------0------------------------| 
Bb|------------1---------3----------| 
Gb|----------------------2----------| 
Db|------------------0-------0------| 
Ab|--3---3---3---3------------------| 
Eb|-----------------------------3---| 

Eb|------------------------------------------------------------------| 
Bb|------------------1-------------------------------1---------------| 
Gb|------2-----4-----------4-----2-------2-----4-----------4---2-----| 
Db|------------------------------------------------------------------| 
Ab|--0---0---0---0---0---0---0---0---0---0---0---0---0---0---0---0---| 
Eb|------------------------------------------------------------------| 

Eb|------------------------------------------------------------------| 
Bb|------------1-----1h3---1-----1h3---1-----1h3---1-----------------| 
Gb|--4-----4---------------------------------------------2---2p0-----| 
Db|------------------------------------------------------------------| 
Ab|------------------------------------------------------------------| 
Eb|--3---3---3---3---3---3---3---3---3---3---3---3---3---3---3---3---| 

Eb|------------------------------------------------------------------| 
Bb|------------------1-------------------------------3p1-------1-----| 
Gb|------2-----4-----------4-----2-------2-----4-----------4---------| 
Db|------------------------------------------------------------------| 
Ab|--0---0---0---0---0---0---0---0---0---0---0---0---0---0---0---0---| 
Eb|------------------------------------------------------------------| 

Eb|------------------------------------------------------------------| 
Bb|------------1-----1h3---1-----1h3---1-----1h3---1-----------------| 
Gb|--4-----4---------------------------------------------2---2p0-----| 
Db|------------------------------------------------------------------| 
Ab|------------------------------------------------------------------| 
Eb|--3---3---3---3---3---3---3---3---3---3---3---3---3---3---3---3---| 

Bridge 
Eb|------------------------------------------------------------------| 
Bb|------------------------------------------------------------------| 
Gb|------------------------------------------------------------------|  (x2) 
Db|------------------------------------------------------------------| 
Ab|-0-0-0-0-0-0-0-0-0-0-0-0-0-0-0-0----------------------------------| 
Eb|---------------------------------3-3-3-3-3-3-3-3-3-3-3-3-3-3-3-3--| 

Chorus 
Eb|------------------------------------------------------------------| 
Bb|------------1-----------1-------------------1-----------1---------| 
Gb|------4-----------4-----------4-------4-----------4---------4-----| 
Db|------------------------------------------------------------------| 
Ab|--0---0---0---0---0---0---0---0---0---0---0---0---0---0---0---0---| 
Eb|------------------------------------------------------------------| 

Eb|------------0-----------------------------------------------------| 
Bb|--------1---------3p1---1-----------1-----------1-----------------| 
Gb|--4---------------------------0h2---------2-----------2---2p0-----| 
Db|------------------------------------------------------------------| 
Ab|------------------------------------------------------------------| 
Eb|--3---3---3---3---3---3---3---3---3---3---3---3---3---3---3---3---| 

Eb|------------------------------------------------------------------| 
Bb|------------1-----------1-------------------1-----------1---------| 
Gb|------4-----------4-----------4-------4-----------4---------4-----| 
Db|------------------------------------------------------------------| 
Ab|--0---0---0---0---0---0---0---0---0---0---0---0---0---0---0---0---| 
Eb|------------------------------------------------------------------| 

Eb|------------0-----------------------------------------------------| 
Bb|--------1---------3p1---1-----------1-----------1-----------------| 
Gb|--4---------------------------0h2---------0h2---------2---2p0-----| 
Db|------------------------------------------------------------------| 
Ab|------------------------------------------------------------------| 
Eb|--3---3---3---3---3---3---3---3---3---3---3---3---3---3---3---3---| 

Eb|------------------------------------------------------------------| 
Bb|------------1-----------1-------------------1-----------1---------| 
Gb|------4-----------4-----------4-------4-----------4---------4-----| 
Db|------------------------------------------------------------------| 
Ab|--0---0---0---0---0---0---0---0---0---0---0---0---0---0---0---0---| 
Eb|------------------------------------------------------------------| 

Eb|------------0-----------------------------------------------------| 
Bb|--------1---------3p1---1-----------1-----------1-----------------| 
Gb|--4---------------------------0h2---------0h2---------2---2p0-----| 
Db|------------------------------------------------------------------| 
Ab|------------------------------------------------------------------| 
Eb|--3---3---3---3---3---3---3---3---3---3---3---3---3---3---3---3---| 

Eb|------------------------------------------------------------------| 
Bb|------------1-----------1-------------------1-----------1---------| 
Gb|------4-----------4-----------4-------4-----------4---------4-----| 
Db|------------------------------------------------------------------| 
Ab|--0---0---0---0---0---0---0---0---0---0---0---0---0---0---0---0---| 
Eb|------------------------------------------------------------------| 

Eb|------------0-----------------------------------------------------| 
Bb|--------1---------3p1---1-----------1-----------1-----------1-----| 
Gb|--4---------------------------0h2---------0h2---------0h2---------| 
Db|------------------------------------------------------------------| 
Ab|------------------------------------------------------------------| 
Eb|--3---3---3---3---3---3---3---3---3---3---3---3---3---3---3---3---| 

Outro 
Eb|--------0------------------------0---| 
Bb|------------1---------3----------1---| 
Gb|----------------------2----------2---| 
Db|------------------0-------0------2---| 
Ab|--3---3---3---3------------------0---| 
Eb|-----------------------------3-------| 


************************************ 

| b  Bend 
| p  Pull-off 
| h  Hammer-on 

************************************ 
  

top 5 | city and colour
top country
Outras músicas do artista letras do(a) City And Colour
Top cifras »Top artistas »
Petaxxon Comunicação Online
Cifras.com.br - Melhor e mais completo site de cifras e tablaturas do Brasil
Mais de 1 milhão de acordes de músicas cadastradas desde 2003
As informações contidas no nosso site são colaborações de seus usuários e podem conter erros, sendo assim, não nos responsabilizamos sobre nenhuma destas.
close
menos
mais
close
Cor dos acordes:

Cor da letra:

 

save
close
close
 
redimensionar