Cifras e Tablaturas
Clara Benin

Clara Benin

Blameless (live)

Cifras Cancelar Versão de Impressão
cifras

Clara Benin - Blameless (live)

fixar na tela  
Exibindo: vídeo-aula ver clipes redimensionar

Tom:

  
Intro 
e|-------------|-------------|-------------|-------------|--------------|-------------|-------------------| 
B|--------7----|-------4~----|--------6----|--------2----|---------4----|--------4----|--------6-----6----| 
G|--------6----|-------5~----|--------6----|--------3----|---------3----|--------3----|--------7-----7----| 
D|-----8-------|----4--------|----6--------|-----2-------|-----4--------|-----4-------|-----6-------------| 
A|--6----------|-------------|-4-----------|-------------|--3-----------|--2----------|-------------------|x2 
E|-------------|-4-----------|-------------|--2----------|--------------|-------------|--6--------6-------| 

Verse 
e|-------------|-------------|-------------|-------------|--------------|-------------|-------------------| 
B|--------7----|-------4~----|--------6----|--------2----|---------4----|--------4----|--------6-----6----| 
G|--------6----|-------5~----|--------6----|--------3----|---------3----|--------3----|--------7-----7----| 
D|-----8-------|----4--------|----6--------|-----2-------|-----4--------|-----4-------|-----6-------------| 
A|--6----------|-------------|-4-----------|-------------|--3-----------|--2----------|-------------------|x2 
E|-------------|-4-----------|-------------|--2----------|--------------|-------------|--6--------6-------| 

Pre-Chorus 
e|------------|-------------|-------------|-------------|-----------------|--------------------| 
B|--------7---|--------6----|--------6----|--------4----|--------4--------|--------3-------3---| 
G|--------6---|--------4----|--------6----|--------3----|--------3--------|--------3-------3---| 
D|-----8------|-----6-------|----6--------|-----4-------|-----4-------4---|-----3--------------| 
A|--6---------|--5----------|-4-----------|--3----------|--2--------------|--1----------1------|x2 
E|------------|-------------|-------------|-------------|-----------------|--------------------| 

Chorus 
e|------------x------------|------------x------------|------------x------------| 
B|--------4---x-------4----|--------6---x-------6----|--------7---x-------7----| 
G|--------4---x-------4----|--------6---x-------6----|--------8---x-------8----| 
D|-----4------x------------|-----6------x------------|-----8------x------------| 
A|--2---------x----2-------|--4---------x----4-------|--6---------x----6-------| 
E|------------x------------|------------x------------|------------x------------| 

e|------------x------------| 
B|--------6---x-------6----| 
G|--------6---x-------6----| 
D|-----6------x------------| 
A|--4---------x----4-------|x2 
E|------------x------------| 

e|-------------|-------------|---------------------| 
B|--------4----|--------4----|-----6--6-------6----| 
G|--------3----|--------3----|-----7--7-------7----| 
D|-----4-------|-----4-------|-----6--6-------6----| 
A|--3----------|--2----------|---------------------| 
E|-------------|-------------|--6----------6-------| 

verse 2 
e|-------------|-------------|-------------|-------------|--------------|-------------|-------------------| 
B|--------7----|-------4~----|--------6----|--------2----|---------4----|--------4----|--------6-----6----| 
G|--------6----|-------5~----|--------6----|--------3----|---------3----|--------3----|--------7-----7----| 
D|-----8-------|----4--------|----6--------|-----2-------|-----4--------|-----4-------|-----6-------------| 
A|--6----------|-------------|-4-----------|-------------|--3-----------|--2----------|-------------------|x2 
E|-------------|-4-----------|-------------|--2----------|--------------|-------------|--6--------6-------| 

Pre-Chorus 
e|------------|-------------|-------------|-------------|-----------------|--------------------| 
B|--------7---|--------6----|--------6----|--------4----|--------4--------|--------3-------3---| 
G|--------6---|--------4----|--------6----|--------3----|--------3--------|--------3-------3---| 
D|-----8------|-----6-------|----6--------|-----4-------|-----4-------4---|-----3--------------| 
A|--6---------|--5----------|-4-----------|--3----------|--2--------------|--1----------1------|x2 
E|------------|-------------|-------------|-------------|-----------------|--------------------| 

Chorus 
e|------------x------------|------------x------------|------------x------------| 
B|--------4---x-------4----|--------6---x-------6----|--------7---x-------7----| 
G|--------4---x-------4----|--------6---x-------6----|--------8---x-------8----| 
D|-----4------x------------|-----6------x------------|-----8------x------------| 
A|--2---------x----2-------|--4---------x----4-------|--6---------x----6-------| 
E|------------x------------|------------x------------|------------x------------| 

e|------------x------------| 
B|--------6---x-------6----| 
G|--------6---x-------6----| 
D|-----6------x------------| 
A|--4---------x----4-------|x2 
E|------------x------------| 

e|-------------|-------------|---------------------| 
B|--------4----|--------4----|-----6--6-------6----| 
G|--------3----|--------3----|-----7--7-------7----| 
D|-----4-------|-----4-------|-----6--6-------6----| 
A|--3----------|--2----------|---------------------| 
E|-------------|-------------|--6----------6-------| 

e|--------------|--------------|--------------|-------------| 
B|-----7---7----|-----6---6----|-----6---6----|-------------| 
G|-----6---6----|-----4---4----|-----6---6----|-------------| 
D|-----8---8----|-----6---6----|-----6---6----|-------------| 
A|--6-----------|--5-----------|--4-----------|--3--3--4----|4x 
E|--------------|--------------|--------------|-------------| 

e|--------------|--------------|--------------|--------------| 
B|--------7-----|--------6-----|--------6-----|--------4-----| 
G|--------6-----|--------4-----|--------6-----|--------3-----| 
D|-----8--------|-----6--------|-----6--------|-----4--------| 
A|--6-----------|--5-----------|--4-----------|--3-----------|2x 
E|--------------|--------------|--------------|--------------| 

(strum the chords) 
(Its gonna hurt, It's gonna sting but I'll do anything) 
e|--------------|--------------|--------------|--------------| 
B|------7-------|------6-------|------6-------|------4-------| 
G|------6-------|------4-------|------6-------|------3-------| 
D|------8-------|------6-------|------6-------|------4-------| 
A|------6-------|------5-------|------4-------|------3-------|2x 
E|--------------|--------------|--------------|--------------| 

(Just to feel you here with me once again) 
e|--------------|--------------|--------------|--------------| 
B|------4-------|------6-------|------8-------|------6-------| 
G|------3-------|------6-------|------7-------|------6-------| 
D|------4-------|------6-------|------7-------|------6-------| 
A|------2-------|------4-------|------6-------|------4-------|2x 
E|--------------|--------------|--------------|--------------| 

(Then believe in your lie) 
e|-------------|-------------|---------------------| 
B|--------4----|--------4----|-----6--6-------6----| 
G|--------3----|--------3----|-----7--7-------7----| 
D|-----4-------|-----4-------|-----6--6-------6----| 
A|--3----------|--2----------|---------------------| 
E|-------------|-------------|--6----------6-------| 

(Blameless in your side) 
e|-------------|-------------|-------------|-------------|--------------|-------------|-------------------| 
B|--------7----|-------4~----|--------6----|--------2----|---------4----|--------4----|--------6-----6----| 
G|--------6----|-------5~----|--------6----|--------3----|---------3----|--------3----|--------7-----7----| 
D|-----8-------|----4--------|----6--------|-----2-------|-----4--------|-----4-------|-----6-------------| 
A|--6----------|-------------|-4-----------|-------------|--3-----------|--2----------|-------------------| 
E|-------------|-4-----------|-------------|--2----------|--------------|-------------|--6--------6-------| 

Outro 
(Ooooh ooooh) 
e|-------------|-------------|-------------|-------------|--------------|-------------|-------------------| 
B|--------7----|-------4~----|--------6----|--------2----|---------4----|--------4----|--------6-----6----| 
G|--------6----|-------5~----|--------6----|--------3----|---------3----|--------3----|--------7-----7----| 
D|-----8-------|----4--------|----6--------|-----2-------|-----4--------|-----4-------|-----6-------------| 
A|--6----------|-------------|-4-----------|-------------|--3-----------|--2----------|-------------------| 
E|-------------|-4-----------|-------------|--2----------|--------------|-------------|--6--------6-------| 

e|-------------|-------------|-------------|-------------| 
B|--------7----|-------4~----|--------6----|--------2----| 
G|--------6----|-------5~----|--------6----|--------3----| 
D|-----8-------|----4--------|----6--------|-----2-------| 
A|--6----------|-------------|-4-----------|-------------| 
E|-------------|-4-----------|-------------|--2----------| 

e|-------------|-------------|---------------------| 
B|--------4----|--------4----|-----6--6-------6----| 
G|--------3----|--------3----|-----7--7-------7----| 
D|-----4-------|-----4-------|-----6--6-------6----| 
A|--3----------|--2----------|---------------------| 
E|-------------|-------------|--6----------6-------| 


************************************ 

| ~  Vibrato 
| x  Dead note 

************************************ 
  

top 5 | clara benin
top rock'n roll
Outras músicas do artista letras do(a) Clara Benin
Top cifras »Top artistas »
Petaxxon Comunicação Online
Cifras.com.br - Melhor e mais completo site de cifras e tablaturas do Brasil
Mais de 1 milhão de acordes de músicas cadastradas desde 2003
As informações contidas no nosso site são colaborações de seus usuários e podem conter erros, sendo assim, não nos responsabilizamos sobre nenhuma destas.
close
menos
mais
close
Cor dos acordes:

Cor da letra:

 

save
close
close
 
redimensionar