Cifras e Tablaturas
Cloud Nothings

Cloud Nothings

Things Are Right With You

Cifras Cancelar Versão de Impressão
cifras

Cloud Nothings - Things Are Right With You

fixar na tela  
Exibindo: vídeo-aula ver clipes redimensionar

Tom:

  
Intro 
e|---------------------------------------------------------------------------| 
B|---------------------------------------------------------------------------| 
G|----------------------2--4--2--0--|----------------------------------------| 
D|--5-5-5--5--5--5-5----0--0--0--0--|--5-5-5-5-5-5-5--4-2-0------------------| 
A|--3-3-3--7--3--2-2----0--0--0--0--|--3-3-3-7-3-2-2--0-0-0------------------| 
D|--5-5-5--5--5--2-2----0--0--0--0--|--5-5-5-5-5-2-2--0-0-0------------------| 

e|---------------------------------------------------------------------------| 
B|----------------------------------3----------------------------------------| 
G|-------------------2-4-2-0-|--4-4-4----------------------------------------| 
D|--5-5-5-5-5---5-5--0-0-0-0-|--2-2-2--5-5-4-4-------------------------------| 
A|--3-3-3-7-3---2-2--0-0-0-0-|--2-2-2--3-3-5-5-------------------------------| 
D|--5-5-5-5-5---2-2--0-0-0-0-|--2-2-2--5-5-5-5-------------------------------| 

Verse   
e|---------------------------------------------------------------------------| 
B|--3-------3---3--------------3---------------------------------------------| 
G|--0-------0---2----------4-4-4---------------------------------------------| 
D|--2-------2---0----X3----2-2-2--5-5-4-4------------------------------------| 
A|--3-------2---0----------2-2-2--3-3-5-5------------------------------------| 
D|----------2---0----------2-2-2--5-5-5-5------------------------------------| 

Pre-Chorus 
e|---------------------------------------------------------------------------| 
B|---------------------------------------------------------------------------| 
G|--------------7-7--2-2-----------2-2---------------------------------------| 
D|----5-5-5-5---5-5--0-0--5-5-5-5--0-0-4-4-----X2----------------------------| 
A|----3-3-3-3---5-5--0-0--3-3-3-3--0-0-0-0-----------------------------------| 
D|----5-5-5-5-------------5-5-5-5--0-0-0-0-----------------------------------| 

e|---------------------------------------------------------------------------| 
B|---------------------------------------------------------------------------| 
G|-----7--7-7-7--------------------------------------------------------------| 
D|-----5--5-5-5--------------------------------------------------------------| 
A|-----3--3-3-3--------------------------------------------------------------| 
D|-----5--5-5-5--------------------------------------------------------------| 

Chorus 
e|---------------------------------------------------------------------------| 
B|---------------------------------------------------------------------------| 
G|---------------------------------------------------------------------------| 
D|---2-2-2---2-2-2---0-0-0--0-0-0---5-5-5--5-5-5--5-5-5----------------------| 
A|---2-2-2---2-2-2---0-0-0--0-0-0---5-5-5--5-5-5--3-3-3--X2------------------| 
D|---2-2-2---2-2-2---0-0-0--0-0-0---5-5-5--5-5-5--5-5-5----------------------| 

e|---------------------------------------------------------------------------| 
B|---------------------------------------------------------------------------| 
G|--4-4-4-4----2-2-2-2--7-7-7-7-/-9--7-7-7-7---------------------------------| 
D|--2-2-2-2----0-0-0-0--5-5-5-5------5-5-5-5---------------------------------| 
A|--2-2-2-2----0-0-0-0--5-5-5-5------3-3-3-3---2-----------------------------| 
D|--2-2-2-2----0-0-0-0--5-5-5-5------5-5-5-5---------------------------------| 

Bridge   
(Play louder and with open strings to build up into Chorus) 
e|---------------------------------------------------------------| 
B|---------------------------------------------------------------| 
G|---------------------------------------------------------------| 
D|-----2-----4-----5---7-----------------------------------------| 
A|-----2-----4-----5---7-----------------------------------------| 
D|-----2-----4-----5---7-----------------------------------------| 


************************************ 

| /  Slide up 

************************************ 
  

top 5 | cloud nothings
top rock alternativo
Outras músicas do artista letras do(a) Cloud Nothings
Top cifras »Top artistas »
Petaxxon Comunicação Online
Cifras.com.br - Melhor e mais completo site de cifras e tablaturas do Brasil
Mais de 1 milhão de acordes de músicas cadastradas desde 2003
As informações contidas no nosso site são colaborações de seus usuários e podem conter erros, sendo assim, não nos responsabilizamos sobre nenhuma destas.
close
menos
mais
close
Cor dos acordes:

Cor da letra:

 

save
close
close
 
redimensionar