Cifras e Tablaturas
Cloudkicker

Cloudkicker

Its Just Wide-open Field

Cifras Cancelar Versão de Impressão
cifras

Cloudkicker - Its Just Wide-open Field

fixar na tela  
Exibindo: vídeo-aula ver clipes redimensionar

Tom:

  
Rhythm Guitar 

e|-------------------------------| 
B|3-3-3-3-3-3-3-3-3-3-3-3-3-3-3-3| 
G|2-2-2-2-2-2-2-2-2-2-2-2-2-2-2-2| 
D|4-4-4-4-4-4-4-4-4-4-4-4-4-4-4-4| 
A|-------------------------------| 
E|-------------------------------| 


Guitar 2/when the drums kick in  
Guitar 3/comes in with the lead 

E|-------------------------------|--------------------------------------| 
B|--2-3-2---2-3-2---2-3-2---2-3-2|--7--9(7)---7--9(7)--7--9(7)---7--9(7)| 
G|2-------4-------4-------4------|7---------7---------7--------7--------| 
D|-------------------------------|--------------------------------------|      (7)= ghost notes 
A|-------------------------------|--------------------------------------| 
E|-------------------------------|--------------------------------------| 


Lead Guitar 

e|----------------------------------------------------------------------------------| 
B|3h5\3-2h3------(2)-------3h5\3-2h3-------3h5\3-2h3-2---3----------3h5\3-2h3---3---| 
G|----------4v-----(2)--------------------------------------4-----------------4-----| 
D|-----------------------------------4---------------------------------------------4| 
A|----------------------------------------------------------------------------------| 
E|----------------------------------------------------------------------------------| 


Guitar 5 

e|14---14-12----14---14-12----14---14-12----14---14-12---| 
B|-----------15------------15------------15------------15| 
G|-------------------------------------------------------| 
D|-------------------------------------------------------| 
A|-------------------------------------------------------| 
E|-------------------------------------------------------| 


************************************ 

| (n)  Ghost note 
| h    Hammer-on 
| \    Slide down  

************************************ 
  

top 5 | cloudkicker
top rock'n roll
Outras músicas do artista letras do(a) Cloudkicker
Top cifras »Top artistas »
Petaxxon Comunicação Online
Cifras.com.br - Melhor e mais completo site de cifras e tablaturas do Brasil
Mais de 1 milhão de acordes de músicas cadastradas desde 2003
As informações contidas no nosso site são colaborações de seus usuários e podem conter erros, sendo assim, não nos responsabilizamos sobre nenhuma destas.
close
menos
mais
close
Cor dos acordes:

Cor da letra:

 

save
close
close
 
redimensionar