Cifras e Tablaturas
Cocofunka

Cocofunka

Funky Calavera

Cifras Cancelar Versão de Impressão Print

Cocofunka - Funky Calavera

Tom: F#m

  • 0:00 / 0:00
  			
Intro 
|---------------------------------------------------| 
|-----------------------------7----5----------------| 
|-------------------------------6-----6--4v---------| 
|--------7------7------7-4--------------------------| 
|-4----4------4-----4-------------------------------| 
|---------------------------------------------------| 

|---------------------------------------------------| 
|-------------7----55-------------------------------| 
|---------------6-----4-2----2-4--------------------| 
|--------7-4---------------4------------------------| 
|-----4---------------------------------------------| 
|---------------------------------------------------| 

|---------------------------------------------------| 
|---------7---5-------------------------------------| 
|-----------6---6--4v-------------------------------| 
|---7-4---------------------------------------------| 
|-4-------------------------------------------------| 
|---------------------------------------------------| 

|---------------------------------------------------| 
|---------------------------------------------------| 
|---------------------------------------------------| 
|---7-4----7/9/7------------------------------------| 
|-4---------------7/9-------------------------------| 
|---------------------------------------------------| 


Coro 
Funky Calavera... 
Ahi tienen que sacar el ritmo de F#m  
 F#m                   Bm  C#m 
|-9--------------------7-7--9-----------------------| 
|-10-------------------7-7--9-----------------------| 
|-11-------------------7-7--9-----------------------| 
|-11-------------------9-9--11----------------------| 
|-9--------------------9-9--11----------------------| 
|----------------------7-7--9-----------------------| 

y cuando cambia de todo ¡Funky Calaveraaa aaa a a! 
|---10----9-----------------------------------------| 
|---10----9-----------------------------------------| 
|---11----9-----------------------------------------| 
|---12----11----------------------------------------| 
|---12----11----------------------------------------| 
|---10----9-----------------------------------------| 


siempre se a olvidado en la  palabra yooo o o o (1:49) 
 F#m Mi  D C#m Bm 
|-9---7--5--4--2------------------------------------| 
|-10--9--7--5--3------------------------------------| 
|-11--9--7--6--4------------------------------------| 
|-11--9--7--6--4------------------------------------| 
|-9---7--5--4--2------------------------------------| 
|---------------------------------------------------| 

Coro 
Funky Calavera...  
 F#m                   Bm  C#m 
|-9--------------------7-7--9-----------------------| 
|-10-------------------7-7--9-----------------------| 
|-11-------------------7-7--9-----------------------| 
|-11-------------------9-9--11----------------------| 
|-9--------------------9-9--11----------------------| 
|----------------------7-7--9-----------------------| 

¡Funky Calaveraaa aaa a a! 

|---10----9-----------------------------------------| 
|---10----9-----------------------------------------| 
|---11----9-----------------------------------------| 
|---12----11----------------------------------------| 
|---12----11----------------------------------------| 
|---10----9-----------------------------------------| 

 2:15 
|---------------------------------------------------| 
|---------7---5-------------------------------------| 
|-----------6---6--4v-------------------------------| 
|---7-4---------------------------------------------| 
|-4-------------------------------------------------| 
|---------------------------------------------------| 

|---------------------------------------------------| 
|---------------------------------------------------| 
|---------------------------------------------------| 
|---7-4----7/9/7------------------------------------| 
|-4---------------7/9-------------------------------| 
|---------------------------------------------------| 

Coro 
Funky Calavera...  
 F#m                   Bm  C#m 
|-9--------------------7-7--9-----------------------| 
|-10-------------------7-7--9-----------------------| 
|-11-------------------7-7--9-----------------------| 
|-11-------------------9-9--11----------------------| 
|-9--------------------9-9--11----------------------| 
|----------------------7-7--9-----------------------| 

¡Funky Calaveraaa aaa a a! 

|---10----9-----------------------------------------| 
|---10----9-----------------------------------------| 
|---11----9-----------------------------------------| 
|---12----11----------------------------------------| 
|---12----11----------------------------------------| 
|---10----9-----------------------------------------| 

esto va despues del ultimo coro 
   D   Bm   D  Mi          F#m 
|--10---9---10--7-----------9-----------------------| 
|--10---9---10--9-----------10----------------------| 
|--11---9---11--9-----------11--------------7--4----| 
|--12---11--12--9-----------11------------4---------| 
|--12---11--12--7-----------9-----------------------| 
|--10---9---10--------------------------------------|  
    	

enviado porenviado por: ubirbomfim
cifra enviadaCorrigida por: sem correções
logo top cifrasComente
ico música do artistaMúsicas deste artista
ico curtiuCurtiu?
ico destaqueDestaque
Petaxxon Comunicação Online

Cifras.com.br - Melhor e mais completo site de cifras e tablaturas do Brasil Mais de 1 milhão de acordes de músicas cadastradas desde 2003
As informações contidas no nosso site são colaborações de seus usuários e podem conter erros, sendo assim, não nos responsabilizamos sobre nenhuma destas.

close
menos
mais
close
Cor dos acordes:

Cor da letra:

close
Alinhar acordes a direita Alinhar acordes a esquerda Alinhar acordes em baixo Alinhar acordes no topo
close
  Mostrar todos os acordes Esconder acordes muito fáceis Esconder acordes fáceis Esconder acordes intermediários
redimensionar
glossário