Cifras e Tablaturas
Cifras Cancelar Versão de Impressão
cifras

Coheed And Cambria - Colors

fixar na tela  
Exibindo: vídeo-aula ver clipes redimensionar

Tom:

  
  Intro and verse (all palm mute) 

e|-----------------------------------------------------------------------------------------------------| 
B|--------------10--10----------------------10---------------------10--10----------------------10------| 
G|---10--10---------------10--10-----12----------10-----10--10---------------10--10-----12----------10-| 
D|-----------0---------0----------0------0-----------0----------0---------0----------0------0----------| 
A|-----------------------------------------------------------------------------------------------------| 
E|-----------------------------------------------------------------------------------------------------| 

e|-----------------------------------------------------------------------------------------------------| 
B|-----------------------------------------------------------------------------------------------------| 
G|-----------9--10--12----------------9--10--12----------------9--10--12----------------9--10--12------| 
D|---10--10-------------10--10----10-------------10----10--10-------------10--10----10-------------10--| 
A|---0---0------------------------0--------------------0---0------------------------0------------------| 
E|-----------------------------------------------------------------------------------------------------| 


  Chorus 

e|------------------------------|   
B|------------------------------| 
G|-------------10---------------| 
D|---8---------10--x4---10------| 
A|---8--x8-----8--------10--x4--| 
E|---6------------------8-------| 

Guitar 2 
e|----------------------------------------------------------------------------------------------| 
B|---13~--11~--------13~--11~-------------------------------------------------------------------| 
G|----------------------------------9h10p9--7---------------------------------------------------| 
D|---------------------------------------------10--8--7-----------------------------------------| 
A|-------------------------------------------------------10---------10--8---------10--8---------| 
E|-----------------------------------------------------------10--8---------10--8---------10--8--| 


Verse (palm mute all) 

e|-----------------------------------------------------------------------------------------------------| 
B|--------------10--10----------------------10---------------------10--10----------------------10------| 
G|---10--10---------------10--10-----12----------10-----10--10---------------10--10-----12----------10-| 
D|-----------0---------0----------0------0-----------0----------0---------0----------0------0----------| 
A|-----------------------------------------------------------------------------------------------------| 
E|-----------------------------------------------------------------------------------------------------| 

e|-----------------------------------------------------------------------------------------------------| 
B|-----------------------------------------------------------------------------------------------------| 
G|-----------9--10--12----------------9--10--12----------------9--10--12----------------9--10--12------| 
D|---10--10-------------10--10----10-------------10----10--10-------------10--10----10-------------10--| 
A|---0---0------------------------0--------------------0---0------------------------0------------------| 
E|-----------------------------------------------------------------------------------------------------| 



  Chorus 

e|------------------------------|                |----| 
B|------------------------------|                |----| 
G|-------------10---------------|                |----| 
D|---8---------10--x4---10------| x4 and end on  |-12-| 
A|---8--x8-----8--------10--x4--|                |-12-| 
E|---6------------------8-------|                |-10-| 

Guitar 2 
e|----------------------------------------------------------------------------------------------| 
B|---13~--11~--------13~--11~-------------------------------------------------------------------| 
G|----------------------------------9h10p9--7---------------------------------------------------| 
D|---------------------------------------------10--8--7-----------------------------------------| 
A|-------------------------------------------------------10---------10--8---------10--8---------| 
E|-----------------------------------------------------------10--8---------10--8---------10--8--| 


Bridge 

e|----------------------------------------------------------------------------------------| 
B|--10--10-----------------10--10---------------------------------------------------------| 
G|---------12--12--10--10----------12--12--10--10-----9----10----12----9----9----10----12-| 
D|-------------------------------------------------10---10----10----10---10---10----10----| 
A|----------------------------------------------------------------------------------------| 
E|----------------------------------------------------------------------------------------| 


|---------------------------------------------------------| then |------------------------| 
|---------------------------------------------------------|      |------------------------| 
|-----9----10----12----9----10----12----9----10-10-10-10--|      |-----9----10----12----12| 
|--10---10----10----10---10----10----10---10--------------|      |--10---10----10----10---| 
|---------------------------------------------------------|      |------------------------| untill  
|---------------------------------------------------------|      |------------------------| Chorus 

guitar 2 

e|-------------------------------------------------------------------------------------------| 
B|----------------------------------------------------------------------13~-\8~-/10~-\5~-/6~-| 
G|--9-10-9-7----------9-10-9-7---------9-10-9-7---------9-10-9-7-----------------------------| 
D|------------10--10------------10-10------------10--10-----------10-10----------------------| 
A|-------------------------------------------------------------------------------------------| 
E|-------------------------------------------------------------------------------------------| 


  Chorus x2 

e|------------------------------|                |----| 
B|------------------------------|                |----| 
G|-------------10---------------|                |----| 
D|---8---------10--x4---10------| x4 and end on  |-12-| 
A|---8--x8-----8--------10--x4--|                |-12-| 
E|---6------------------8-------|                |-10-| 

Guitar 2 
e|----------------------------------------------------------------------------------------------| 
B|---13~--11~--------13~--11~-------------------------------------------------------------------| 
G|----------------------------------9h10p9--7---------------------------------------------------| 
D|---------------------------------------------10--8--7-----------------------------------------| 
A|-------------------------------------------------------10---------10--8---------10--8---------| 
E|-----------------------------------------------------------10--8---------10--8---------10--8--| 


outro 

e|-----------------------------------------------------------------------------------------------------| 
B|--------------10--10----------------------10---------------------10--10----------------------10------| 
G|---10--10---------------10--10-----12----------10-----10--10---------------10--10-----12----------10-| 
D|-----------0---------0----------0------0-----------0----------0---------0----------0------0----------| x2 
A|-----------------------------------------------------------------------------------------------------| 
E|-----------------------------------------------------------------------------------------------------| 


~ vibrato 
/ slide up 
\ slide down 
h hammer-on 
p pull-off 
  

top 5 | coheed and cambria
top rock'n roll
Outras músicas do artista letras do(a) Coheed And Cambria
Top cifras »Top artistas »
Petaxxon Comunicação Online
Cifras.com.br - Melhor e mais completo site de cifras e tablaturas do Brasil
Mais de 1 milhão de acordes de músicas cadastradas desde 2003
As informações contidas no nosso site são colaborações de seus usuários e podem conter erros, sendo assim, não nos responsabilizamos sobre nenhuma destas.
close
menos
mais
close
Cor dos acordes:

Cor da letra:

 

save
close
close
 
redimensionar