Cifras e Tablaturas
Colony House

Colony House

Silhouettes

Cifras Cancelar Versão de Impressão
cifras

Colony House - Silhouettes

fixar na tela  
Exibindo: vídeo-aula ver clipes redimensionar
  
Intro (0:05-0:15) 

e|-----------------------------------------------| 
B|-----------------------------------------------| 
G|--13----10-------10------13----10-------10-----| (Play x4) 
D|-----13----10-13----10------13----10-13----13--| 
A|-----------------------------------------------| 
E|-----------------------------------------------| 



verse 1 

(No lead guitar) 



Chorus (1:03-1:13) 

e|--8----4----3----1---------------------|--8----4----3----1---------------------| 
B|----8----6----4----1--4----1-----------|----8----6----4----1--4----1-----------| 
G|------------------------3----1------1~-|------------------------3----1------1~-|  
D|--------------------------------1h3----|--------------------------------1h3----|   
A|---------------------------------------|---------------------------------------| 
E|---------------------------------------|---------------------------------------| 



verse 2 (1:13-1:19) 

e|-----------------------------------|---------------------------------| 
B|-----------------------------------|---------------------------------| 
G|--1-1-1-1-1-1-1-1-1-1-1-1-1-3-3-1--|--1-1-1-1-1-1-1-1-1-1-1-1-1-3----| 
D|-----------------------------------|---------------------------------| 
A|-----------------------------------|---------------------------------| 
E|-----------------------------------|---------------------------------| 



Chorus (1:49-2:00) 

e|--8----4----3----1---------------------|--8----4----3----1---------------------| 
B|----8----6----4----1--4----1-----------|----8----6----4----1--4----1-----------| 
G|------------------------3----1------1~-|------------------------3----1------1~-|  
D|--------------------------------1h3----|--------------------------------1h3----|   
A|---------------------------------------|---------------------------------------| 
E|---------------------------------------|---------------------------------------| 



Bridge  

(No lead guitar) 



Outro (2:36-2:54) 

e|--------------------------------------|----------------------------| 
B|--------------------------------------|----------------------------| 
G|--13----10-------10--13--10-------13--|--13----10-------10---------| 
D|-----13----10-13------------10-13-----|-----13----10-13----10------| 
A|--------------------------------------|----------------------------| 
E|--------------------------------------|----------------------------| 

e|--8----4----3----1---------------------|--8----4----3----1---------------------| 
B|----8----6----4----1--4----1-----------|----8----6----4----1--4----1-----------| 
G|------------------------3----1------1~-|------------------------3----1------1~-|  
D|--------------------------------1h3----|--------------------------------1h3----|   
A|---------------------------------------|---------------------------------------| 
E|---------------------------------------|---------------------------------------| 



************************************ 

| h   Hammer-on 
| ~   Vibrato 

************************************ 
  

top 5 | colony house
top rock'n roll
Outras músicas do artista letras do(a) Colony House
Top cifras »Top artistas »
Petaxxon Comunicação Online
Cifras.com.br - Melhor e mais completo site de cifras e tablaturas do Brasil
Mais de 1 milhão de acordes de músicas cadastradas desde 2003
As informações contidas no nosso site são colaborações de seus usuários e podem conter erros, sendo assim, não nos responsabilizamos sobre nenhuma destas.
close
menos
mais
close
Cor dos acordes:

Cor da letra:

 

save
close
close
 
redimensionar