Cifras e Tablaturas
Coma Cinema

Coma Cinema

Sad World

Cifras Cancelar Versão de Impressão
cifras

Coma Cinema - Sad World

fixar na tela  
Exibindo: vídeo-aula ver clipes redimensionar

Tom:

  
 
capo 2

verse 1 
e|---------------------------------------------------------------------------| 
B|---------------------------------------------------------------------------| 
G|---------------------------------------------------------------------------| 
D|------0-------0-------0-------0-------0-------0-------0-------0-------0----| 
A|----9---9---7---7---5---5---5---5---9---9---7---7---4---4---4---4---4---4--| 
E|--7-------5-------3-------3-------7-------5-------5-------5-------5--------| 

e|---------------------------------------------------------------------------| 
B|---------------------------------------------------------------------------| 
G|---------------------------------------------------------------------------| 
D|-----0----0------0-------0-------0-------0---------------------------------| 
A|-----9----7----5---5---5---5---5---5---5---5-------------------------------| 
E|---7----5----3-------3-------3-------3-------------------------------------| 

e|---------------------------------------------------------------------------| 
B|---------------------------------------------------------------------------| 
G|---------------------------------------------------------------------------| 
D|------0-------0-------0-------0-------0-------0-------0-------0-------0----| 
A|----9---9---7---7---5---5---5---5---9---9---7---7---4---4---4---4---4---4--| 
E|--7-------5-------3-------3-------7-------5-------5-------5-------5--------| 

e|---------------------------------------------------------------------------| 
B|---------------------------------------------------------------------------| 
G|---------------------------------------------------------------------------| 
D|-----0----0------0-------0-------0-------0---------------------------------| 
A|-----9----7----5---5---5---5---5---5---5---5-------------------------------| 
E|---7----5----3-------3-------3-------3-------------------------------------|  

Chorus 
e|---------------------------------------------------------------------------| 
B|---------------------------------------------------------------------------| 
G|---------------------------------------------------------------------------| 
D|------0-------0--------0--------0-------0-------0-------0-------0----------| 
A|----9---9---7---7---12---12---5---5---9---9---7---7---5---5---5---5--------| 
E|--7-------5-------10--------3-------7-------5-------3-------3--------------| 

e|-------------------------------------------------------------------------------------| 
B|-------------------------------------------------------------------------------------| 
G|-------------------------------------------------------------------------------------| 
D|------0-------0--------0--------0-------0-------0-------0-------0-------0-------0----| 
A|----9---9---7---7---12---12---5---5---9---9---7---7---5---5---5---5---5---5---5---5--| 
E|--7-------5-------10--------3-------7-------5-------3-------3-------3-------3--------|  

verse 2 
e|---------------------------------------------------------------------------| 
B|---------------------------------------------------------------------------| 
G|---------------------------------------------------------------------------| 
D|------0-------0-------0-------0-------0-------0-------0-------0-------0----| 
A|----9---9---7---7---5---5---5---5---9---9---7---7---4---4---4---4---4---4--| 
E|--7-------5-------3-------3-------7-------5-------5-------5-------5--------| 

e|---------------------------------------------------------------------------| 
B|---------------------------------------------------------------------------| 
G|---------------------------------------------------------------------------| 
D|-----0----0------0-------0-------0-------0---------------------------------| 
A|-----9----7----5---5---5---5---5---5---5---5-------------------------------| 
E|---7----5----3-------3-------3-------3-------------------------------------|  

e|---------------------------------------------------------------------------| 
B|---------------------------------------------------------------------------| 
G|---------------------------------------------------------------------------| 
D|------0-------0-------0-------0-------0-------0-------0-------0-------0----| 
A|----9---9---7---7---5---5---5---5---9---9---7---7---4---4---4---4---4---4--| 
E|--7-------5-------3-------3-------7-------5-------5-------5-------5--------| 

e|---------------------------------------------------------------------------| 
B|---------------------------------------------------------------------------| 
G|---------------------------------------------------------------------------| 
D|-----0----0------0-------0-------0-------0---------------------------------| 
A|-----9----7----5---5---5---5---5---5---5---5-------------------------------| 
E|---7----5----3-------3-------3-------3-------------------------------------|  

Chorus 
e|---------------------------------------------------------------------------| 
B|---------------------------------------------------------------------------| 
G|---------------------------------------------------------------------------| 
D|------0-------0--------0--------0-------0-------0-------0-------0----------| 
A|----9---9---7---7---12---12---5---5---9---9---7---7---5---5---5---5--------| 
E|--7-------5-------10--------3-------7-------5-------3-------3--------------| 

e|-------------------------------------------------------------------------------------| 
B|-------------------------------------------------------------------------------------| 
G|-------------------------------------------------------------------------------------| 
D|------0-------0--------0--------0-------0-------0-------0-------0-------0-------0----| 
A|----9---9---7---7---12---12---5---5---9---9---7---7---5---5---5---5---5---5---5---5--| 
E|--7-------5-------10--------3-------7-------5-------3-------3-------3-------3--------|  

Outro 
e|-------------------------------------------| 
B|-------------------------------------------| 
G|-------------------------------------------| 
D|------0-------0-------0-------0------------| 
A|----5---5---5---5---5---5---5---5----------| 
E|--3-------3-------3-------3----------------| 
 
  

top 5 | coma cinema
top pop music
Outras músicas do artista letras do(a) Coma Cinema
Top cifras »Top artistas »
Petaxxon Comunicação Online
Cifras.com.br - Melhor e mais completo site de cifras e tablaturas do Brasil
Mais de 1 milhão de acordes de músicas cadastradas desde 2003
As informações contidas no nosso site são colaborações de seus usuários e podem conter erros, sendo assim, não nos responsabilizamos sobre nenhuma destas.
close
menos
mais
close
Cor dos acordes:

Cor da letra:

 

save
close
close
 
redimensionar