Cifras e Tablaturas
Converge

Converge

Aimless Arrow

Cifras Cancelar Versão de Impressão Print

Converge - Aimless Arrow

Tom:

  • 0:00 / 0:00
  			
SECTION 1 (x2) 
D |-----------------------------------------------------| 
Ab|----------------------------------------7--p0--------| 
F |----7--0--------7---5p0----7--0----0h7h8-----7p0-5p0-| 
C |----------8--8-----8-------------8-------------------| 
G |-----------------------------------------------------| 
C |-7----------------------7----------------------------| 
                                         
                                       1st Ending   2nd Ending 
D |------------------------------------|-5--5--5-5-|-5--5--5-5--5--5--5-5-| 
Ab|------------------------------------|-0--0--0-0-|-0--0--0-0--0--0--0-0-| 
F |----7--0--------7---5p0----3----5p0-|-2--2--2-2-|-2--2--2-2--2--2--2-2-| 
C |----------8--8-----8----------------|-----------|----------------------| 
G |------------------------------------|(0)--------|----------------------| 
C |-7----------------------3-----3-----|-----------|----------------------| 


TRANISTION 
D |--------------| 
Ab|--------------| 
F |-0------------| 
C |-0-(let-ring)-| 
G |-0------------| 
C |-0------------| 

SECTION 2 

     R    L    R  L  R L R    L    R  L  R L    R   L  R   L    R   L   R   L 
D |---------------------------------------------------------------------------| 
Ab|-16--------16----16--16--------16----16-----16-----16-------16-------------| 
F |-15---12---15-12-151215---12---15-12-15-8---15---8-15---8---15---8--17\--8-| 
C |---------------------------------------------------------------------------|x3 
G |---------------------------------------------------------------------------| 
C |---------------------------------------------------------------------------| 

     R    L    R  L  R L R    L    R  L  R L    R   L  R   L    R   L   R 
D |-------------------------------------------------------------------------| 
Ab|-16--------16----16--16--------16----16-----16-----16-------16-----------| 
F |-15---12---15-12-151215---12---15-12-15-8---15---8-15---8---15---8--17\--| 
C |-------------------------------------------------------------------------| 
G |-------------------------------------------------------------------------| 
C |-------------------------------------------------------------------------| 

SECTION 3 (Keep Tapping) 
    L    R  L  R   L    R   L  R    L    R   L  R     L    R    L  R 
D |---------------------------------------------------------------17-| 
Ab|-----------19--------------19---------------16--------------------| 
F |-8---18--8-18---8---18---8-18--8\7---15---7-15--7/10---17---10-17-| 
C |-----18-------------18---------------15----------------17---------| 
G |------------------------------------------------------------------| 
C |------------------------------------------------------------------| 

    L    R  L  R   L    R   L  R    L    R   L  R     L    R    L  R 
D |-----------------------------------------------------------------| 
Ab|-----19----19-------19-----19--------16-----16--------17------17-| 
F |-8---18--8-18---8---18---8-18--8\7---15---7-15--7\5---17---10-17-| 
C |-----------------------------------------------------------------| 
G |-----------------------------------------------------------------| 
C |-----------------------------------------------------------------| 

    L    R  L  R   L    R   L  R    L    R   L  R     L    R    L  R 
D |-------------------------------------------------------17------17-| 
Ab|-----19----19-------19-----19--------16-----16--------------------| 
F |-8---18--8-18---8---18---8-18--8\7---15---7-15--7/10---17---10-17-| 
C |------------------------------------------------------------------| 
G |------------------------------------------------------------------| 
C |------------------------------------------------------------------| 

    L    R  L  R   L    R   L  R    L    R   L  R L 
D |-----------------------------------------------------| 
Ab|-----19----19-------19-----19--------16-----16-------| 
F |-8---18--8-18---8---18---8-18--8\7---15---7-15-7/5~--| 
C |-----------------------------------------------------| 
G |-----------------------------------------------------| 
C |-----------------------------------------------------| 

REPEAT SECTION 2 

REPEAT SECTION 3 

REPEAT SECTION 1 

SECTION 4 (Fast tremolo picking for both chords) 
D |-5----6----| 
Ab|-0----0----| 
F |-2----3----| 
C |-TP---TP---|x3 
G |-----------| 
C |-----------| 

D |-5----5---5---5-5-| 
Ab|-0----0---0---0-0-| 
F |-2----2---2---2-2-| 
C |-TP---------------| 
G |------------------| 
C |------------------| 

SECTION 5 
D |-5---5---5-5---5---5---5-5---5---5---5-5---5---5---6-6-5-| 
Ab|-0---0---0-0---0---0---0-0---0---0---0-0---0---0---0-0-0-| 
F |-2---2---2-2---2---2---2-2---2---2---2-2---2---2---3-3-2-| 
C |---------------------------------------------------------|x2 
G |---------------------------------------------------------| 
C |---------------------------------------------------------| 

SECTION 6 
D |------------------------------| 
Ab|------------------------------| 
F |------------------------------| 
C |-7---7---7-5-7-8---8---7-10-8-|x3 
G |-7---7---7-5-7-8---8---7-10-8-| 
C |-7---7---7-5-7-8---8---7-10-8-| 

D |-------------5---5---5-5-| 
Ab|-------------0---0---0-0-| 
F |----3----5p0-2---2---2-2-| 
C |-------------------------| 
G |-------------------------| 
C |-3-----3-----------------| 


************************************ 

| /   slide up 
| \   slide down 
| h   hammer-on 
| p   pull-off 
| ~   vibrato 
| +   harmonic 
| x   Mute note 
| b   Bend 
| pb  Pre-bend 
| br  Bend release 
| pbr Pre-bend release 
| brb Bend release bend 

************************************ 
    	

enviado porenviado por: carlluz
cifra enviadaCorrigida por: sem correções
logo top cifrasComente
ico música do artistaMúsicas deste artista
ico curtiuCurtiu?
ico destaqueDestaque
Petaxxon Comunicação Online

Cifras.com.br - Melhor e mais completo site de cifras e tablaturas do Brasil Mais de 1 milhão de acordes de músicas cadastradas desde 2003
As informações contidas no nosso site são colaborações de seus usuários e podem conter erros, sendo assim, não nos responsabilizamos sobre nenhuma destas.

close
menos
mais
close
Cor dos acordes:

Cor da letra:

close
Alinhar acordes a direita Alinhar acordes a esquerda Alinhar acordes em baixo Alinhar acordes no topo
close
  Mostrar todos os acordes Esconder acordes muito fáceis Esconder acordes fáceis Esconder acordes intermediários
redimensionar
glossário