Cifras e Tablaturas
Converge

Converge

Black Cloud

Cifras Cancelar Versão de Impressão Print

Converge - Black Cloud

Tom: D

  • 0:00 / 0:00
  			Tuning:Drop D    

e|----------------------------------| 
B|----------------------------------| 
G|--------------------6-----------6-|x4 no 6 on the last one, & end on 3b-0 
D|-3b--0--6-5-4--3b--0x-6-5--3b--0x-|      x                           3b-0 
A|-3b--0--6-5-4--3b--04-6-5--3b--04-|      4                           3b-0 
D|-3b--0--6-5-4--3b--0--6-5--3b--0--| 

e|-----------------| 
B|-----------------| 
G|-----------------|x3 
D|-3b--0---0-0-0-0-| 
A|-3b--0---0-0-0-0-| 
D|-3b--0---0-0-0-0-| 
        PM . . . . 
e|-----------------------------------------------------------------<9>---| 
B|-----------------------------------------------------------------<9>---|x2  
G|---------------------------6666----4------4------4-------4444----<9>---|then x2 again   
D|-3--4-4--3--4-4--3--4-4----xxxx-2--x-3-3--x-3-3--x-3-3---xxxx-3--<9>---|    
A|-3--4-4--3--4-4--3--4-4----4444-2--2-3-3--2-3-3--2-3-3---2222-3--------| 
D|-3--4-4--3--4-4--3--4-4--0------2----3-3----3-3----3-3-0------3--------| 

e|-----------------| 
B|-----------------| 
G|-444---------444-| 
D|-xxx-2--2--2-xxx-|x4 
A|-222-2--2--2-222-| 
D|-----2--2--2-----| 

e|-----------------------------------------------------------------------------| 
B|-----------------------------------------------------------------------------| 
G|--------------------------------------4-4-4----------------------------------| 
D|------------------------------1--xxx--x-x-x--Last time do this>--9-8--5-4-3--| 
A|------------------------------1--xxx--3-3-3----------------------9-8--5-4-3--|x4  
D|-0-5h8p0--3h6p0--2h3p0--1h2p0-1--xxx-----------------------------9-8--5-4-3--| 

e|--------------------------------------------------------------------------------| 
B|--------------------------------------------------------------------------------| 
G|-----------------------------------4-4-4----------------------------------------| 
D|-0-8-0-7-0-6-0-5-0-4-------1--000--x-x-x-----Last time do this>--9-8--5-4-3--1b-| 
A|-0-8-0-7-0-6-0-5-0-4-------1--000--3-3-3-------------------------9-8--5-4-3--1b-|x4Then end on the intro riff 
D|-0-8-0-7-0-6-0-5-0-4-2h3p0-1--000--------------------------------9-8--5-4-3--1b-|  into the "BLACK CLOUD AT 
 PM. . . . . . . . . .          ...                                                  NIGHT"! PART. 


************************************ 

| /   slide up 
| \   slide down 
| h   hammer-on 
| p   pull-off 
| ~   vibrato 
| <>  natural harmonic 
| x   Mute note 
| b   Bend 
| pb  Pre-bend 
| br  Bend release 
| pbr Pre-bend release 
| brb Bend release bend 

************************************ 
    	

enviado porenviado por: VsWorld
cifra enviadaCorrigida por: sem correções
logo top cifrasComente
ico música do artistaMúsicas deste artista
ico curtiuCurtiu?
ico destaqueDestaque
Petaxxon Comunicação Online

Cifras.com.br - Melhor e mais completo site de cifras e tablaturas do Brasil Mais de 1 milhão de acordes de músicas cadastradas desde 2003
As informações contidas no nosso site são colaborações de seus usuários e podem conter erros, sendo assim, não nos responsabilizamos sobre nenhuma destas.

close
menos
mais
close
Cor dos acordes:

Cor da letra:

close
Alinhar acordes a direita Alinhar acordes a esquerda Alinhar acordes em baixo Alinhar acordes no topo
close
  Mostrar todos os acordes Esconder acordes muito fáceis Esconder acordes fáceis Esconder acordes intermediários
redimensionar
glossário