Cifras e Tablaturas
Converge

Converge

Reap What You Sow

Cifras Cancelar Versão de Impressão Print

Converge - Reap What You Sow

Tom:

  • 0:00 / 0:00
  			

Riff 1 
d|----------------------------------------| 
A|----------------------------------------| 
F|---------------------7--6---------------| 
C|-4--7--6-3--------4--7--6---------------|x4 
G|-4--7--6-3--------4--5--4---------------| 
D|-2--5--4-1-111111-2-------8p4p0h4-8p4p0-| 
             ...... 

Transition 
d|-------| 
A|-------| 
F|-8 -8--| 
C|-8--8--| 
G|-6--6--| 
D|-6--6--| 

Riff 2 
d|------------------------------------------------| 
A|----------2p0-----------------------------------| 
F|--3-33-33-----3p1p0-----------------------------| 
C|--------------------3p2p0-2-22-22-8p0h5p0-8p0h5-|x4 
G|------------------------------------------------| 
D|------------------------------------------------| 

Riff 3 
d|-------------|  |--------------|  |--------------|  |----------------------------| 
A|-------------|  |--------------|  |--------------|  |----------------------------| 
F|-9b---10---7-|  |-12b---13--10-|  |-14b---15--12-|  |-15-14-12-------------------| 
C|----7----8---|x4|----10---11---|x4|----12---13---|x3|----------15-14-12----------| 
G|-------------|  |--------------|  |--------------|  |-------------------15-14-12-| 
D|-------------|  |--------------|  |--------------|  |----------------------------| 

d|------------------------------------------------| 
A|------------------------------------------------| 
F|------------------------------------------------| 
C|------------------------------------------------| 
G|-14b---15--12--14b---15--12--14b---15--12--14~--| 
D|----12---13-------12---13-------12---13---------| 

Repeat Riff 2 
Repeat Riff 3 but replace the last... 
d|-----|      |----------| 
A|-----|      |----------| 
F|-----|      |----------| 
C|-----| with |----------| 
G|-14~-|      |-14*b-----| 
D|-----|      |------12\-| 

Riff 4 
d|------------------------------------------| 
A|------------------------------------------| 
F|------------------------------------------| 
C|------------------------------------------|x2 
G|------------------------------------------| 
D|-2-22-2222222-2222222-222-3p0-5p0-6p0-5p0-| 
   . .. ....... ....... ... 

d|------------------------------------------| 
A|------------------------------------------| 
F|------------------------------------------| 
C|------------------------------------------| 
G|------------------------------------------| 
D|-5-55-5555555-5555555-555-6p0-5p0-4p0-3p0-| 
   . .. ....... ....... ... 

d|------------------------------| 
A|------------------------------| 
F|------------------------------| 
C|------------------5---8-7-6-5-| 
G|------------------5---8-7-6-5-| 
D|-5-55-55555555555-3---6-5-4-3-| 
   . .. ........... 

Solo Guitar (Rhythm Guitar Repeats Riff 4 x2) 
d|---------------------------------------------------------------------------| 
A|--------------------------TP---TP---TP---TP---TP-TP---TP-TP----17b19rbrbrb-| 
F|----------------TP---TP---11---14---16---14---16-14---16-14----------------| 
C|------TP---TP---11---14----------------------------------------------------| 
G|-TP---12---14--------------------------------------------------------------| 
D|-14------------------------------------------------------------------------| 

d|--------------------------------------------------------------------------| 
A|-16b17--16b17--20p17------------------------------------------------------| 
F|--------------------19h20p19p17----------141414131313121212---------------| 
C|-------------------------------19h22p19\-------------------14141413131212-| 
G|--------------------------------------------------------------------------| 
D|--------------------------------------------------------------------------| 
There are some slides at the end of the above line, but I can't make them out. 

d|-14--------14-------1414141416161616171717171919202020b21rbrb-| 
A|-17b19rbrb-17b9rbrb-------------------------------------------| 
F|--------------------------------------------------------------| 
C|--------------------------------------------------------------| 
G|--------------------------------------------------------------| 
D|--------------------------------------------------------------| 

d|-20-17--17---------------------------------------------------| 
A|------19--19-16-19-16--16------------------------------------| 
F|---------------------17--17-14-17-14--14---------------------| 
C|------------------------------------16--16-13-16-13--13------| 
G|---------------------------------------------------15--15-12-15-12-| 
D|-------------------------------------------------------------| 

d|-------------------------1515171720b21\-| 
A|-------------151515171717-------------\-| 
F|-141414171717---------------------------| 
C|----------------------------------------| 
G|----------------------------------------| 
D|----------------------------------------| 

Repeat Riff 1 
Repeat Transition 
Repeat Riff 2 

Riff 5 (play the pick slide the first time only) 
d|---------------------------| 
A|---------------------------| 
F|-------------------10-10-7-| 
C|-////////////-2-2--10-10-7-|x8 
G|-/pick-slide/-2-2---8--8-5-| 
D|-////////////-0-0----------| 

d|-------------| 
A|-------------| 
F|-/9~-10-10-7-| 
C|-----10-10-7-|x4 
G|------8--8-5-| 
D|-------------| 

d|--------------------| 
A|--------------------| 
F|------------10-10-7-| 
C|-(feedback)-10-10-7-|x4 
G|-------------8--8-5-| 
D|--------------------| 

Outro 
d|-----------------------| 
A|-----------------------| 
F|------------10-10-7----| 
C|-(feedback)-10-10-7-6~-| 
G|-------------8--8-5-x--| 
D|-------------8--8-5-4~-| 

 
    	

enviado porenviado por: aleffederico
cifra enviadaCorrigida por: sem correções
logo top cifrasComente
ico música do artistaMúsicas deste artista
ico curtiuCurtiu?
ico destaqueDestaque
Petaxxon Comunicação Online

Cifras.com.br - Melhor e mais completo site de cifras e tablaturas do Brasil Mais de 1 milhão de acordes de músicas cadastradas desde 2003
As informações contidas no nosso site são colaborações de seus usuários e podem conter erros, sendo assim, não nos responsabilizamos sobre nenhuma destas.

close
menos
mais
close
Cor dos acordes:

Cor da letra:

close
Alinhar acordes a direita Alinhar acordes a esquerda Alinhar acordes em baixo Alinhar acordes no topo
close
  Mostrar todos os acordes Esconder acordes muito fáceis Esconder acordes fáceis Esconder acordes intermediários
redimensionar
glossário