Cifras e Tablaturas
Converge

Converge

Single Tear

Cifras Cancelar Versão de Impressão

Converge - Single Tear

Tom:

  			
Intro 
D|---------------------------------------------------------------------------| 
A|---------------------------------------------------------------------------| 
F|-----7------7-------5-7---------3-----------5-3----------------------------| 
C|---7----3-7-----7-5-----5h0---7--------8--------7-5-3----------------------| 
G|-5------------3-------------0-------12---6------------3--------------------| 
C|----------------------------------8----------------------------------------| 

D|---------------------------------------------------------------------------| 
A|---------------------------------------------------------------------------| 
F|-----7------7-------5-7---------3---------8--------------------------------| 
C|---7----3-7-----7-5-----5h0---7--------8--8--------------------------------| 
G|-5------------3-------------0-------12----6--------------------------------| 
C|----------------------------------8----------------------------------------| 

Verse 
There's unique Ballow's pull-off's technique (some pull-offs can be unplayed or unheard 
D|------------------------------------------------------------------------| 
A|----------------------10p0--------------------------------10p0----------| 
F|-10p9p0-7p0-5p0-10p9p0----12p0-10s9--10p9p0-7p0-5p0-10p9p0----12p0-10s9-| 
C|------------------------------------------------------------------------| 
G|------------------------------------------------------------------------| 
C|------------------------------------------------------------------------| 

D|------------------------------------------------------------------------| 
A|----------------------10p0--------------------------------10p0----------| 
F|-10p9p0-7p0-5p0-10p9p0----12p0-10s9--10p9p0-7p0-5p0-10p9p0----12p0-10s9-| 
C|------------------------------------------------------------------------| 
G|------------------------------------------------------------------------| 
C|------------------------------------------------------------------------| 

D|-----------------------------------------------------------------------------| 
A|-----------------------------------------------------------------------------| 
F|-12-10p0-10p0-9p0-12-10p0-10p0-9p0-7p0-12-10p0-10p0-9p0-12-10p0-10p0-9p0-7p0-| 
C|-----------------------------------------------------------------------------| 
G|-----------------------------------------------------------------------------| 
C|-----------------------------------------------------------------------------| 

D|------------------------------------| 
A|------------------------------------| 
F|-9-7p0-5p0-2p0--9-7p0-5p0-2s5s9v----| 
C|------------------------------------| 
G|------------------------------------| 
C|------------------------------------| 

Chorus 
D|-------------------------------------------------------| 
A|-------------------------------------------------------| 
F|-10-----------10-----------10-----------10-------------| 
C|-------------------------------------------------------| 
G|-8---00000000-8---00000000-8---00000000-8---00000000---| 
C|-----00000000-----00000000-----00000000-----00000000---| 

D|-------------------------------------------------------| 
A|-------------------------------------------------------| 
F|-9------------9------------9-------------9-------------| 
C|-------------------------------------------------------| 
G|-7---00000000-7---00000000-7----00000000-7---00000000--| 
C|-----00000000-----00000000------00000000-----00000000--| 

D|-------------------------------------------------------| 
A|-------------------------------------------------------| 
F|-10-----------10-----------10-----------10-------------| 
C|-------------------------------------------------------| 
G|-8---00000000-8---00000000-8---00000000-8---00000000---| 
C|-----00000000-----00000000-----00000000-----00000000---| 

D|-------------------------------------------------------------| 
A|-------------------------------------------------------------| 
F|-9------------9------------9-------------9-------------------| 
C|-----------------------------------------------7-8-8-----8s7-| 
G|-7---00000000-7---00000000-7----00000000-7-------------------| 
C|-----00000000-----00000000------00000000---------------------| 

Instrumental 
D|---------------------------------------------------------------------------| 
A|---------------------------------------------------------------------------| 
F|-----7------7-------5-7---------3-----------5-3----------------------------| 
C|---7----3-7-----7-5-----5h0---7--------8--------7-5-3----------------------| 
G|-5------------3-------------0-------12---6------------3--------------------| 
C|----------------------------------8----------------------------------------| 

D|---------------------------------------------------------------------------| 
A|---------------------------------------------------------------------------| 
F|-----7------7-------5-7---------3---------8--------------------------------| 
C|---7----3-7-----7-5-----5h0---7--------8--8--------------------------------| 
G|-5------------3-------------0-------12----6--------------------------------| 
C|----------------------------------8----------------------------------------| 

Chorus 
D|-------------------------------------------------------| 
A|-------------------------------------------------------| 
F|-10-----------10-----------10-----------10-------------| 
C|-------------------------------------------------------| 
G|-8---00000000-8---00000000-8---00000000-8---00000000---| 
C|-----00000000-----00000000-----00000000-----00000000---| 

D|-------------------------------------------------------| 
A|-------------------------------------------------------| 
F|-9------------9------------9-------------9-------------| 
C|-------------------------------------------------------| 
G|-7---00000000-7---00000000-7----00000000-7---00000000--| 
C|-----00000000-----00000000------00000000-----00000000--| 

D|-------------------------------------------------------| 
A|-------------------------------------------------------| 
F|-10-----------10-----------10-----------10-------------| 
C|-------------------------------------------------------| 
G|-8---00000000-8---00000000-8---00000000-8---00000000---| 
C|-----00000000-----00000000-----00000000-----00000000---| 

D|-------------------------------------------------------------| 
A|-------------------------------------------------------------| 
F|-9------------9------------9-------------9-------------------| 
C|-----------------------------------------------7-8-8-----8s7-| 
G|-7---00000000-7---00000000-7----00000000-7-------------------| 
C|-----00000000-----00000000------00000000---------------------| 

Bridge 
D|-----------------------------------------------------------------------------------------------| 
A|-----------------------------------------------------------------------------------------------| 
F|-----------------------------------------------------------------------------------------------| 
C|-3h5-5--5--8-7---5--5-5-5---5s-----7-5-3-1p0---------5--5-5-5-5-5--5-5-5-5--1-1--1-1--3-3--3-3-| 
G|-3h5-5--5-----8--5--5-5-5---5s3~-3-----------3p0-----5--5-5-5-5-5--5-5-5-5--1-1--1-1--3-3--3-3-| 
C|-3h5-5--5--------5--5-5-5---5s-------------------3h5-5--5-5-5-5-5--5-5-5-5--1-1--1-1--3-3--3-3-| 

D|-----------------------------------------------------------------------------------------------| 
A|-----------------------------------------------------------------------------------------------| 
F|-----------------------------------------------------------------------------------------------| 
C|-3h5-5--5--8-7---5--5-5-5---5s-----7-5-3-1p0---3-----5--5-5-5-5-5--5-5-5-5--1-1--1-1--3-3--3-3-| 
G|-3h5-5--5-----8--5--5-5-5---5s3~-3-----------3-3-----5--5-5-5-5-5--5-5-5-5--1-1--1-1--3-3--3-3-| 
C|-3h5-5--5--------5--5-5-5---5s-----------------3-----5--5-5-5-5-5--5-5-5-5--1-1--1-1--3-3--3-3-| 

There's every note is played 32 times except first one (8th with 4x4) 

D|----------------------------------------------------------------------------------------------------------| 
A|----------------------------------------------------------------------------------------------------------| 
F|----------------------------------------------------------------------------------------------------------| 
C|-8--8-8-8-8-8-8-8-8-8-8-8-8-8-8-8-8-8-8-8-8-8-8-8-8-8-8-8-8-8-8-7-7-7-7-7-7-7-7-7-7-7-7-7-7-7-7-7-7-7-7-7-| 
G|----------------------------------------------------------------------------------------------------------| 
C|----------------------------------------------------------------------------------------------------------| 

D|---------------------------------------------------------------------------------------------------------| 
A|---------------------------------------------------------------------------------------------------------| 
F|---------------------------------------------------------------------------------------------------------| 
C|-7-7-7-7-7-7-7-7-7-7-7-8-8-8-8-8-8-8-8-8-8-8-8-8-8-8-8-8-8-8-8-8-8-8-8-8-8-8-8-8-8-8-8-7-7-7-7-7-7-7-7-7-| 
G|---------------------------------------------------------------------------------------------------------| 
C|---------------------------------------------------------------------------------------------------------| 

D|-----------------------------------------------| 
A|-----------------------------------------------| 
F|-----------------------------------------------| 
C|-7-7-7-7-7-7-7-7-7-7-7-7-7-7-7-7-7-7-7-7-7-7-7-| 
G|-----------------------------------------------| 
C|-----------------------------------------------| 

Post-bridge 
D|------------------------------------------------------------------------------------17-17-17-17-17-| 
A|---11---11~----11---11~----10---10~----10---10~----15---15~---15---15~---18---18~------------------| 
F|-12---12-----12---12-----10---10-----10---10-----17---17----17---17----19---19---------------------| 
C|---------------------------------------------------------------------------------------------------| 
G|---------------------------------------------------------------------------------------------------| 
C|---------------------------------------------------------------------------------------------------|(x4) 

Chorus 
D|-------------------------------------------------------| 
A|-------------------------------------------------------| 
F|-10-----------10-----------10-----------10-------------| 
C|-------------------------------------------------------| 
G|-8---00000000-8---00000000-8---00000000-8---00000000---| 
C|-----00000000-----00000000-----00000000-----00000000---| 

D|-------------------------------------------------------| 
A|-------------------------------------------------------| 
F|-9------------9------------9-------------9-------------| 
C|-------------------------------------------------------| 
G|-7---00000000-7---00000000-7----00000000-7---00000000--| 
C|-----00000000-----00000000------00000000-----00000000--| 

D|-------------------------------------------------------| 
A|-------------------------------------------------------| 
F|-10-----------10-----------10-----------10-------------| 
C|-------------------------------------------------------| 
G|-8---00000000-8---00000000-8---00000000-8---00000000---| 
C|-----00000000-----00000000-----00000000-----00000000---| 

D|-------------------------------------------------------| 
A|-------------------------------------------------------| 
F|-9------------9------------9-------------9-------------| 
C|-------------------------------------------------------| 
G|-7---00000000-7---00000000-7----00000000-7---00000000--| 
C|-----00000000-----00000000------00000000-----00000000--| 

Lead enters 
D|------------------------------------------------------------------------| 
A|----------------------10p0--------------------------------10p0----------| 
F|-10p9p0-7p0-5p0-10p9p0----12p0-10s9--10p9p0-7p0-5p0-10p9p0----12p0-10s9-| 
C|------------------------------------------------------------------------| 
G|------------------------------------------------------------------------| 
C|------------------------------------------------------------------------| 

D|------------------------------------------------------------------------| 
A|----------------------10p0--------------------------------10p0----------| 
F|-10p9p0-7p0-5p0-10p9p0----12p0-10s9--10p9p0-7p0-5p0-10p9p0----12p0-10s9-| 
C|------------------------------------------------------------------------| 
G|------------------------------------------------------------------------| 
C|------------------------------------------------------------------------| 

D|-----------------------------------------------------------------------------| 
A|-----------------------------------------------------------------------------| 
F|-12-10p0-10p0-9p0-12-10p0-10p0-9p0-7p0-12-10p0-10p0-9p0-12-10p0-10p0-9p0-7p0-| 
C|-----------------------------------------------------------------------------| 
G|-----------------------------------------------------------------------------| 
C|-----------------------------------------------------------------------------| 

D|-------------------------------------------------------------| 
A|-------------------------------------------------------------| 
F|-9-7p0-5p0-2p0--9-7p0-5p0-2-5--9-7p0-5p0-2p0--9-7p0-5p0-2-5--| 
C|-------------------------------------------------------------| 
G|-------------------------------------------------------------| 
C|-------------------------------------------------------------|(x2) 


************************************ 

| x   Dead note 
| h   Hammer-on 
| p   Pull-off 
| ~   Vibrato 
| s   Slide 

************************************ 
    	
fixar
fixar inscrever-se

enviado porenviado por: joaoewerton
cifra enviadaCorrigida por: sem correções
logo top cifrasComente
ico música do artistaMúsicas deste artista
ico curtiuCurtiu?
ico destaqueDestaque
Petaxxon Comunicação Online

Cifras.com.br - Melhor e mais completo site de cifras e tablaturas do Brasil Mais de 1 milhão de acordes de músicas cadastradas desde 2003
As informações contidas no nosso site são colaborações de seus usuários e podem conter erros, sendo assim, não nos responsabilizamos sobre nenhuma destas.

close
menos
mais
close
Cor dos acordes:

Cor da letra:

close
Alinhar acordes a direita Alinhar acordes a esquerda Alinhar acordes em baixo Alinhar acordes no topo
close
  Mostrar todos os acordes Esconder acordes muito fáceis Esconder acordes fáceis Esconder acordes intermediários
redimensionar
glossário