Cifras e Tablaturas
Converge

Converge

Trespasses

Cifras Cancelar Versão de Impressão Print

Converge - Trespasses

Tom: C

  • 0:00 / 0:00
  			


SECTION 1 
D|-------------------------------------------------------------------| 
A|-------------------------------------------------------------------| 
F|-------------------------------------------------------------------| 
C|-10-9-----7-6-----4-3-------------3-4-----7-6-----3-2--------------| 
G|-10-9-00007-6-00004-3-0000000000003-4-00007-6-00003-2-000000000000-| 
C|-10-9-00007-6-00004-3-0000000000003-4-00007-6-00003-2-000000000000-| 
        ....    ....    ............    ....    ....    ............ 

D|-------------------------------------------------------------------| 
A|-------------------------------------------------------------------| 
F|-------------------------------------------------------------------| 
C|-10-9-----7-6-----4-3-------------3-4-----7-6-----3-2--\\\\\\\\\\\-| 
G|-10-9-00007-6-00004-3-0000000000003-4-----7-6-----3-2--\pickslide\-| 
C|-10-9-00007-6-00004-3-0000000000003-4-----7-6-----3-2--\\\\\\\\\\\-| 
        ....    ....    ............ 

SECTION 2 
D|-----------------------------------------------------------------| 
A|-----------------------------------------------------------------| 
F|----------444444----------444444----------444444--------44444444-| 
C|-3-3--3-3--------3-3--3-3--------3-3--3-3--------3-3--3----------| 
G|-3-3--3-3--------3-3--3-3--------3-3--3-3--------3-3--3----------| 
C|-3-3--3-3--------3-3--3-3--------3-3--3-3--------3-3--3----------| 

SECTION 3 
D|------------------------------------------------------------| 
A|-------5-5-5--5-4-4--4-2-2--2-6-6--6-5-5--------------------| 
F|-------6-6-6--6-5-5--5-3-3--3-7-7--7-6-6--------------------| 
C|-----------------------------------------10-9-----7-6-----4-| 
G|---bass----------------------------------10-9-00007-6-00004-| 
C|-(0-0--0)--------------------------------10-9-00007-6-00004-| 
                                                ....    .... 
REPEAT SECTION 2 

REPEAT SECTION 3 

SECTION 4 
D|--------------------------------------------------------------------------| 
A|--------------------------------------------------------------------------| 
F|--------------------------------------------------------------------------| 
C|-6--6--6--7--9--10--6--6--6--7--6--4--6--6--6--7--9--10--7-------4--------| 
G|-6--6--6--7--9--10--6--6--6--7--6--4--6--6--6--7--9--10--7-------4--------| 
C|-6--6--6--7--9--10--6--6--6--7--6--4--6--6--6--7--9--10--7-7777774-444444-| 
                                                             ......  ...... 
D|-----------------------------------------------------------------------------------| 
A|-----------------------------------------------------------------------------------| 
F|-----------------------------------------------------------------------------------| 
C|-8--8--8--9--11--12--8--8--8--9--8--6--8--8--8--9--11--12--9-------11--------------| 
G|-8--8--8--9--11--12--8--8--8--9--8--6--8--8--8--9--11--12--9-------11------(11s)---| 
C|-8--8--8--9--11--12--8--8--8--9--8--6--8--8--8--9--11--12--9-99999911-111111111111-| 
                                                               ......    . . . . . . 

SECTION 5 
D|----------------------------------------------------------------| 
A|----------------------------------------------------------------| 
F|-8-8---8-8-8---8-8-8---8-8/11~---8-8------8-8-----8-8-----8/11~-| 
C|-8-8---8-8-8---8-8-8---8-8/11~---8-8------8-8-----8-8-----8/11~-| 
G|-6-6---6-6-6---6-6-6---6-6/-9~---6-6------6-6-----6-6-----6/-9~-| 
C|----------------------------------------7-------7-------7-------| 

                               (fast!) 
D|-11-------11-11--11-11-14-----14-11--11------------------------------------| 
A|-14b16----16-16--16-16-14----------14--14-11-14-11--11---------------------| 
F|-13b15----15-15--15-15----------------------------14--14-13-14-13-11-------| 
C|--------------------------------------------------------------------13-12~-| 
G|---------------------------------------------------------------------------| 
C|---------------------------------------------------------------------------| 
NOTE: Hold the bends above until the release. It's possible the two notes are 
on separate tracks, but when he plays it live, I'm fairly sure I can hear  
both notes. Also, the fast part, might be easier for you on a different spot 
on the neck. Just a speedy blues scale lick. 

REPEAT: 
SECTION 1 
SECTION 2 
SECTION 3 
SECTION 2 
SECTION 3 
SECTION 4 
SECTION 5 

SECTION 6 
D|-------------------------------------------------------------------| 
A|-------------------------------------------------------------------| 
F|-------------------------------------------------------------------| 
C|-10-9---9-1212---12-11-11---11-9-9---8-7-7---5-4-4---2-1-1---1-1-1-| 
G|-10-9---9--9-9----9--9--9----9-9-9---8-7-7---5-4-4---2-1-1---1-1-1-| 
C|-10-9---9--9-9----9--9--9----9-9-9---8-7-7---5-4-4---2-1-1---1-1-1-| 

D|--0--0--0------15-12-------12---------------------------------------------| 
A|-13-12-10/12~--------15p12-15b17r15b17\--/12--9---------------------------| 
F|-------------------------------------------------11-10~--12-9----11-------| 
C|--------------------------------------------------------------10----12-10-| 
G|--------------------------------------------------------------------12-10-| 
C|--------------------------------------------------------------------12-10-| 

D|------------------------------------------------------------------| 
A|------------------------------------------------------------------| 
F|------------------------------------------------------------------| 
C|-9-9---9-1212---12-11-11---11-9-9---8-7-7---5-4-4---2-1-1---1-1-1-| 
G|-9-9---9--9-9----9--9--9----9-9-9---8-7-7---5-4-4---2-1-1---1-1-1-| 
C|-9-9---9--9-9----9--9--9----9-9-9---8-7-7---5-4-4---2-1-1---1-1-1-| 

D|--------------------------------------------------| 
A|------------------------------------9----/12~-----| 
F|----7-9-9h10~----7-9-10------7-9-10---10----------| 
C|-/9-----------/9-------8~-/9----------------------| 
G|--------------------------------------------------| 
C|--------------------------------------------------| 

D|----------------------10---------7---------------------------| 
A|-10-10b12---r11.5-----10b12-----10b12r10b12------------------| 
F|-------------------------------------------------------------| 
C|------------------------------------------------\\\\\\\\\\\\-| 
G|------------------------------------------------\pick-slide\-| 
C|------------------------------------------------\\\\\\\\\\\\-| 

SECTION 7 
D|-------------------------------------------------------------------| 
A|-------------------------------------------------------------------| 
F|-------------------------------------------------------------------| 
C|-10-9-----7-6-----4-3-------------3-4-----7-6-----3-2--------------|x3 
G|-10-9-00007-6-00004-3-0000000000003-4-00007-6-00003-2-000000000000-| 
C|-10-9-00007-6-00004-3-0000000000003-4-00007-6-00003-2-000000000000-| 
        ....    ....    ............    ....    ....    ............ 

D|---------------------------------------------------------------| 
A|-----------------------------------------------------------0x--| 
F|-----------------------------------------------------------0x--| 
C|-10-9-----7-6-----4-3-------------3-4-----7-6-----3-0------0x--| 
G|-10-9-00007-6-00004-3-0000000000003-4-----7-6-----3-0----------| 
C|-10-9-00007-6-00004-3-0000000000003-4-----7-6-----3-0----------| 
        ....    ....    ............ 

 

 
    	

enviado porenviado por: IronPower4Ever
cifra enviadaCorrigida por: sem correções
logo top cifrasComente
ico música do artistaMúsicas deste artista
ico curtiuCurtiu?
ico destaqueDestaque
Petaxxon Comunicação Online

Cifras.com.br - Melhor e mais completo site de cifras e tablaturas do Brasil Mais de 1 milhão de acordes de músicas cadastradas desde 2003
As informações contidas no nosso site são colaborações de seus usuários e podem conter erros, sendo assim, não nos responsabilizamos sobre nenhuma destas.

close
menos
mais
close
Cor dos acordes:

Cor da letra:

close
Alinhar acordes a direita Alinhar acordes a esquerda Alinhar acordes em baixo Alinhar acordes no topo
close
  Mostrar todos os acordes Esconder acordes muito fáceis Esconder acordes fáceis Esconder acordes intermediários
redimensionar
glossário