Cifras e Tablaturas
Converge

Converge

Wolves At My Door

Cifras Cancelar Versão de Impressão Print

Converge - Wolves At My Door

Tom: C

  • 0:00 / 0:00
  			
Tuning: Drop (C  G  C  F  A  D) 


(0:00 - 0:09) 

D|----------------------------| 
A|----------------------------| 
F|-6-6-6----------------------|   Play 4x 
C|-6-6-6---4-4-4--------------| 
G|-4-4-4---4-4-4---let-ring---| 
C|---------4-4-4--------------| 
PM 


(0:10 - 0:29)   
                                         (1)       (2) 
D|-----8-8-------8-8-------8-8-------8-8/11-|-11-11---| 
A|------------------------------------------|---------| 
F|-----5-5-------5-5-------5-5-------5-5/8--|-8--8----|   Play (1) 4x 
C|-7---------7---------7---------7----------|---------|   Play (2) at the end of 
G|-7---------7---------7---------7----------|---------|      your 4th repeat. 
C|-7---------7---------7---------7----------|---------| 
PM 


(0:29 - 0:36) 

D|-11-11-11-11-------11-11-11-11-------11-11-11-11-------11-11-11-11-------| 
A|-------------------------------------------------------------------------| 
F|-8--8--8--8--------8--8--8--8--------8--8--8--8--------8--8--8--8--------| 
C|-------------7\3/7-------------7\3/7-------------7\3/7-------------7\3---| 
G|-------------------------------------------------------------------------| 
C|-------------7\3/7-------------7\3/7-------------7\3/7-------------7\3---| 
PM 


(0:36 - 0:45) 
                                         (1)       (2) 
D|-----8-8-------8-8-------8-8-------8-8/11-|-11-11---| 
A|------------------------------------------|---------| 
F|-----5-5-------5-5-------5-5-------5-5/8--|-8--8----|   Play (1) 2x 
C|-7---------7---------7---------7----------|---------|   Play (2) at the end of 
G|-7---------7---------7---------7----------|---------|      your 2nd repeat. 
C|-7---------7---------7---------7----------|---------| 
PM 


(0:45 - 0:51) 

D|-11-11-11-11-------11-11-11-11-------11-11-11-11-------11-11-11-11---| 
A|---------------------------------------------------------------------| 
F|-8--8--8--8--------8--8--8--8--------8--8--8--8--------8--8--8--8----| 
C|-------------7\3/7-------------7\3/7-------------7\3/7---------------| 
G|---------------------------------------------------------------------| 
C|-------------7\3/7-------------7\3/7-------------7\3/7---------------| 
PM 


(0:51 - 1:01) 

D|-----------------| 
A|-----------------| 
F|-----------------|   Play 4x 
C|-7\3/7---7\3/7---| 
G|-----------------| 
C|-7\3/7---7/3/7---| 
PM 


(1:01 - 1:02) 

D|-----------------| 
A|-----------------| 
F|---------8-8-8---| 
C|-7-7-7---8-8-8---| 
G|-7-7-7---6-6-6---| 
C|-7-7-7-----------| 
PM 


(1:02 - 1:09) 

D|-----13-------13-------13---------------|-13-------13-------13-----------------| 
A|----------------------------------------|------------------------------8-8-8---| 
F|-----10-------10-------10---------8-8-8-|-10-------10-------10---------8-8-8---| 
C|-----9--------9--------9--7-7-7---8-8-8-|-9--------9--------9--7-7-7---6-6-6---| 
G|-0-0----0-0-0----0-0-0----7-7-7---6-6-6-|----0-0-0----0-0-0----7-7-7-----------| 
C|-0-0----0-0-0----0-0-0----7-7-7---------|----0-0-0----0-0-0----7-7-7-----------| 
PM • •    • • •    • • •                       • • •    • • • 


(1:09 - 1:17) 

D|-----13-------13-------13---------------|-------13-------13-----------------------| 
A|----------------------------------------|---------------------------8-8-8\\\\\3---| 
F|-----10-------10-------10---------8-8-8-|-------10-------10---------8-8-8\\\\\3---| 
C|-----9--------9--------9--7-7-7---8-8-8-|-------9--------9--7-7-7---6-6-6\\\\\1---| 
G|-0-0----0-0-0----0-0-0----7-7-7---6-6-6-|-0-0-0----0-0-0----7-7-7-----------------| 
C|-0-0----0-0-0----0-0-0----7-7-7---------|-0-0-0----0-0-0----7-7-7-----------------| 
PM • •    • • •    • • •                    • • •    • • • 


(1:17 - 1:40)     
                (1)            (2) 
D|-----------------|--------------| 
A|----6------------|--------------| 
F|----6------------|-4--4--4--4---|   Play (1) 8x 
C|-4--4------------|-4--4--4--4---|   Play (2) 4x 
G|-4-----3-3-3-3---|-2--2--2--2---| 
C|-4-----3-3-3-3---|--------------| 
PM       • • • • 


(1:40 - 1:54)     
                (1)                                                 (2) 
D|-----------------|---------------------------------------------------| 
A|----6------------|---------------------------------------------------| 
F|----6------------|-4--4--4--4--6--6--6--6--7--7--7--7--9--9--11-11---|   Play (1) 4x 
C|-4--4------------|-4--4--4--4--6--6--6--6--7--7--7--7--9--9--11-11---|   Play (2) 1x 
G|-4-----3-3-3-3---|-2--2--2--2--4--4--4--4--5--5--5--5--7--7--9--9----| 
C|-4-----3-3-3-3---|---------------------------------------------------| 
PM       • • • • 


(1:54 - 2:17)    
                (1)                                                 (2) 
D|-----------------|---------------------------------------------------| 
A|----6------------|---------------------------------------------------| 
F|----6------------|-4--4--4--4--6--6--6--6--7--7--7--7--9--9--11-11---|   Play (1) 8x 
C|-4--4------------|-4--4--4--4--6--6--6--6--7--7--7--7--9--9--11-11---|   Play (2) 1x 
G|-4-----3-3-3-3---|-2--2--2--2--4--4--4--4--5--5--5--5--7--7--9--9----| 
C|-4-----3-3-3-3---|---------------------------------------------------| 
PM       • • • • 


(2:17 - 2:27) 

D|---------------------| 
A|------6--------------| 
F|------6---let-ring---| 
C|-4----4--------------| 
G|-4-------------------| 
C|-4-------------------| 
PM 



************************************ 

| /  Slide up 
| \  Slide down 
| •  Palm mute 

************************************ 
    	

enviado porenviado por: marcnagel
cifra enviadaCorrigida por: sem correções
logo top cifrasComente
ico música do artistaMúsicas deste artista
ico curtiuCurtiu?
ico destaqueDestaque
Petaxxon Comunicação Online

Cifras.com.br - Melhor e mais completo site de cifras e tablaturas do Brasil Mais de 1 milhão de acordes de músicas cadastradas desde 2003
As informações contidas no nosso site são colaborações de seus usuários e podem conter erros, sendo assim, não nos responsabilizamos sobre nenhuma destas.

close
menos
mais
close
Cor dos acordes:

Cor da letra:

close
Alinhar acordes a direita Alinhar acordes a esquerda Alinhar acordes em baixo Alinhar acordes no topo
close
  Mostrar todos os acordes Esconder acordes muito fáceis Esconder acordes fáceis Esconder acordes intermediários
redimensionar
glossário