Cifras e Tablaturas
Copeland

Copeland

Have I Always Loved You

Cifras Cancelar Versão de Impressão
cifras

Copeland - Have I Always Loved You

fixar na tela  
Exibindo: vídeo-aula ver clipes redimensionar
  
Intro / Verse 
e|-----------------------------------------------------------------------| 
B|------0--0--0------0---0--0------0--0--0------0--0--0------------------| 
G|-----0-0--0--0----0-0---0--0----0-0--0--0----0-0--0--0-----------------| 
D|----0------------0-------------0------------0--------------------------| 
A|---7----7--7--7/5----5---5--5/3----3--3--3-3----3--3--3----------------| 
E|-----------------------------------------------------------------------| 

Chorus 
e|------------------------------------------------------------------------| 
B|-------0---0---0-------0--0--0------0-----0-----0-----0-----0-----0-----| 
G|------0-0---0---0-----0-0--0--0----0-0---0-0---0-0---0-0---0-0---0-0----| 
D|-----0---------------0------------0---0-0---0-0---0-0---0-0---0-0---0---| 
A|---10----10--10--10p9----9--9--9/3-----5-----3-----5-----3-----5-----10-| 
E|------------------------------------------------------------------------| 
"whitest dress..." 

Interlude before verse 2 (picks up from the Chorus) 
e|------------------------------------------------------------------------| 
B|-------0---0---0-------0--0--0--0-----0--0--0------0--0--0--------------| 
G|------0-0---0---0-----0-0--0--0--0---0-0--0--0----0-0--0--0-------------| 
D|-----0---------------0--------------0------------0----------------------| 
A|-(10)----10--10--10p9----9--9--9---3----3--3--3-3----3--3--3------------| 
E|------------------------------------------------------------------------| 

Chorus @ 
e|------------------------------------------------------------------------| 
B|-------0---0---0-------0--0--0------0-----0-----0-----0-----0-----0-----| 
G|------0-0---0---0-----0-0--0--0----0-0---0-0---0-0---0-0---0-0---0-0----| 
D|-----0---------------0------------0---0-0---0-0---0-0---0-0---0-0---0---| 
A|---10----10--10--10p9----9--9--9/3-----5-----3-----5-----3-----5-----7--| 
E|------------------------------------------------------------------------| 

e|------------------------------------------| 
B|------0-----0-----0-----0-----0-----0-----| 
G|-----0-0---0-0---0-0---0-0---0-0---0-0----| 
D|----0---0-0---0-0---0-0---0-0---0-0---0---| 
A|---3-----5-----3-----5-----3-----5-----10-| 
E|------------------------------------------| 
"have I always loved you? have I always known?" 

Outro 
Chorus 
e|------------------------------------------------------------------------| 
B|-------0---0---0-------0--0--0------0-----0-----0-----0-----0-----0-----| 
G|------0-0---0---0-----0-0--0--0----0-0---0-0---0-0---0-0---0-0---0-0----| 
D|-----0---------------0------------0---0-0---0-0---0-0---0-0---0-0---0---| 
A|---10----10--10--10p9----9--9--9/3-----5-----3-----5-----3-----5-----10-| 
E|------------------------------------------------------------------------|  
  

top 5 | copeland
top
Outras músicas do artista letras do(a) Copeland
Top cifras »Top artistas »
Petaxxon Comunicação Online
Cifras.com.br - Melhor e mais completo site de cifras e tablaturas do Brasil
Mais de 1 milhão de acordes de músicas cadastradas desde 2003
As informações contidas no nosso site são colaborações de seus usuários e podem conter erros, sendo assim, não nos responsabilizamos sobre nenhuma destas.
close
menos
mais
close
Cor dos acordes:

Cor da letra:

 

save
close
close
 
redimensionar