Cifras e Tablaturas
Cornelis Vreeswijk

Cornelis Vreeswijk

Honan Agda

Cifras Cancelar Versão de Impressão
cifras

Cornelis Vreeswijk - Honan Agda

fixar na tela  
Exibindo: vídeo-aula ver clipes redimensionar
  
Intro  
e|----------2--------0--0--------------2--| 
B|----------3--------1--1--------------3--| 
G|----------2--------0--0--------------2--| 
D|--7-4-0--------2------------------0-----| 
A|-------------0-----------0--2--4--------| 
E|----------------------------------------| 
  
Verse 
Fingerpicking style (whole song):  
    D        A7       A7       D        D        A7       A7       D   
e|-----2--2-----0--0-----0--0-----2--2-|----2--2-----0--0-----0--0-----2--2--| 
B|-----3--3-----1--1-----1--1-----3--3-|----3--3-----1--1-----1--1-----3--3--| 
G|-----2--2-----0--0-----0--0-----2--2-|----2--2-----0--0-----0--0-----2--2--| 
D|--0--------------------------0-------|-0--------------------------0--------| 
A|-----------0--------0----------------|----------0--------0-----------------| 
E|-------------------------------------|-------------------------------------| 
    G        D        G        A7        D        G       A7       D 
e|-----3--3-----2--2-----3--3-----0--0-|----2--2-----3--------0--0-----2-----| 
B|-----0--0-----3--3-----0--0-----1--1-|----3--3-----0--------1--1-----3-----| 
G|-----0--0-----2--2-----0--0-----0--0-|----2--2-----0--------0--0-----2-----| 
D|-----------0-------------------------|-0--------------------------0--------| 
A|-----------------------------0-------|-------------------0-----------------| 
E|--3-----------------3----------------|----------3--------------------------| 

The talk between 2 verses 
e|-----2-----2-----2-----2--| 
B|-----3-----3-----3-----3--| 
G|-----2-----2-----2-----2--| 
D|---0-----0-----0-----0----| 
A|-0-----0-----0-----0------| 
E|--------------------------| 
  

cifra enviadasem correções
enviado porenviada por:fernsantana
top 5 | cornelis vreeswijk
top mpb
Outras músicas do artista letras do(a) Cornelis Vreeswijk
Top cifras »Top artistas »
Petaxxon Comunicação Online
Cifras.com.br - Melhor e mais completo site de cifras e tablaturas do Brasil
Mais de 1 milhão de acordes de músicas cadastradas desde 2003
As informações contidas no nosso site são colaborações de seus usuários e podem conter erros, sendo assim, não nos responsabilizamos sobre nenhuma destas.
close
menos
mais
close
Cor dos acordes:

Cor da letra:

 

save
close
close
 
redimensionar