Cifras e Tablaturas
Cosmo Pyke

Cosmo Pyke

All On Me

Cifras Cancelar Versão de Impressão
cifras

Cosmo Pyke - All On Me

fixar na tela  
Exibindo: vídeo-aula ver clipes redimensionar

Tom:

  INTRO 

e|---------------------0-------0-----0---------------------------------------| 
B|-3-----3---3-----3-----1-------1-------------------------------------------| 
G|---2-----2---2-----2-----2-------2-----------------------------------------| 
D|---------------------------------------0-1---------------------------------| 
A|---------------------3-----3-------3-3-------------------------------------| 
E|-1---1-----1---1-----------------------------------------------------------| 

e|---------------------0-------0-----0---------------------------------------| 
B|-3-----3---3-----3-----1-------1-------------------------------------------| 
G|---2-----2---2-----2-----2-------2-----------------------------------------| 
D|---------------------------------------0-1---------------------------------| 
A|---------------------3-----3-------3-3-------------------------------------| 
E|-1---1-----1---1-----------------------------------------------------------| 

verse 1 

             'I thought we had a pact' 

e|---------------------0-------0-----0---------------------------------------| 
B|-3-----3---3-----3-----1-------1-------------------------------------------| 
G|---2-----2---2-----2-----2-------2-----------------------------------------| 
D|---------------------------------------0-1---------------------------------| 
A|---------------------3-----3-------3-3-------------------------------------| 
E|-1---1-----1---1-----------------------------------------------------------| 

             'We spoke about as we packed, to go back' 

e|---------------------0-------0-----0---------------------------------------| 
B|-3-----3---3-----3-----1-------1-------------------------------------------| 
G|---2-----2---2-----2-----2-------2-----------------------------------------| 
D|---------------------------------------0-1---------------------------------| 
A|---------------------3-----3-------3-3-------------------------------------| 
E|-1---1-----1---1-----------------------------------------------------------| 

       'To our city hobbies, back to those busybodies' 

e|---------------------0-------0-----0-------0-------------------------------| 
B|-3-----3---3-----3-----1-------1-----1-------1-----------------------------| 
G|---2-----2---2-----2-----2-------2-----2-----------------------------------| 
D|---------------------------------------------------------------------------| 
A|---------------------3-----3-------3-----3---------------------------------| 
E|-1---1-----1---1-----------------------------------------------------------| 

   'Who you told in a flash'         'I thought we had a deal 

e|---------------------0-------0-----0---------------------------------------| 
B|-3-----3---3-----3-----1-------1-------------------------------------------| 
G|---2-----2---2-----2-----2-------2-----------------------------------------| 
D|---------------------------------------------------------------------------| 
A|---------------------3-----3-------3---------------------------------------| 
E|-1---1-----1---1-----------------------------------------------------------| 

   dear'                       'Don't want a repeat of 
    
e|---------------------0-------0-----0-------0-------------------------------| 
B|-3-----3---3-----3-----1-------1-----1-------1-----------------------------| 
G|---2-----2---2-----2-----2-------2-----2-----------------------------------| 
D|---------------------------------------------------------------------------| 
A|---------------------3-----3-------3-----3---------------------------------| 
E|-1---1-----1---1-----------------------------------------------------------| 

   last year' 

e|---------------------0-------0-----0---------------------------------------| 
B|-3-----3---3-----3-----1-------1-------------------------------------------| 
G|---2-----2---2-----2-----2-------2-----------------------------------------| 
D|---------------------------------------0-1---------------------------------| 
A|---------------------3-----3-------3-3-------------------------------------| 
E|-1---1-----1---1-----------------------------------------------------------| 

Pre-Chorus 

             'Don't look at me, don't even say my name' 

e|-1-----1---1-----1-------------5-----5-5-/-10-10-10-10---------------------| 
B|---0-----0---0-----0-----------------5-5-/-10-10-10-10---------------------| 
G|---------------------5-5---5-----5---5-5-/-10-10-10-10---------------------| 
D|-0---0-----0---0-------------5-----5-5-5-/-10-10-10-10---------------------| 
A|---------------------7---7-----7-----7-7-/-12-12-12-12---------------------| 
E|-------------------------------------5-5-/-10-10-10-10---------------------| 

   'Cause once you left me, you jumped right into fame' 'Oh yeah, and now' 

e|-10h12-10h12----5--5-5-----------------------------------------------------| 
B|-10----10-------5--5-5-----------------------------------------------------| 
G|-10----10-------5--5-5--------------6-6-6-6-6-6-6-6------------------------| 
D|-10----10-------5--5-5--5-5-5-5-5-5-5-5-5-5-5-5-5-5------------------------| 
A|-10----10-------7--7-7--5-5-5-5-5-5-5-5-5-5-5-5-5-5------------------------| 
E|-10----10-------5--5-5--3-3-3-3-3-3-3-3-3-3-3-3-3-3------------------------| 

Chorus (alternate between strumming and fingerpicking) 

             'It's all on me girl, it's all on me girl' 

e|-0-0-0-0-0-0-0-0-0--0-0-0-0-0-0-0-3-0--------------------------------------| 
B|-1-1-1-1-1-3-1-3-1--1-1-1-1-1-3-1-1-1--------------------------------------| 
G|-0-0-0-0-0-0-0-0-0--2-2-2-2-2-2-2-2-2--------------------------------------| 
D|-2-2-2-2-2-2-2-2-2--3-3-3-3-3-3-3-3-3--------------------------------------| 
A|-3-3-3-3-3-3-3-3-3---------------------------------------------------------| 
E|---------------------------------------------------------------------------| 

             'I trusted you but now, it's all on me girl' 

e|-0-0-0-0-0-0-0-3-0--0-0-0-0-0-3-0-3-0--------------------------------------| 
B|-1-1-1-1-1-3-1-1-1--1-1-1-1-1-1-1-1-1--------------------------------------| 
G|-0-0-0-0-0-0-0-0-0--2-2-2-2-2-2-2-2-2--------------------------------------| 
D|-2-2-2-2-2-2-2-2-2--3-3-3-3-3-3-3-3-3--------------------------------------| 
A|-3-3-3-3-3-3-3-3-3---------------------------------------------------------| 
E|---------------------------------------------------------------------------| 

             ' ? to forget, searching to 

e|-0-0-0-0-0-0-0-0-0--0-0-0-0-0-0-0-3-0--------------------------------------| 
B|-1-1-1-1-1-3-1-3-1--1-1-1-1-1-3-1-1-1--------------------------------------| 
G|-0-0-0-0-0-0-0-0-0--2-2-2-2-2-2-2-2-2--------------------------------------| 
D|-2-2-2-2-2-2-2-2-2--3-3-3-3-3-3-3-3-3--------------------------------------| 
A|-3-3-3-3-3-3-3-3-3---------------------------------------------------------| 
E|---------------------------------------------------------------------------| 

   regret' 'the bad things that I've done, guess I'm a bad luck veteran' 

e|-0-0-0-0-0-0-0-3-0---------------------------------------------------------| 
B|-1-1-1-1-1-3-1-1-1--1-----1---1-----1--------------------------------------| 
G|-0-0-0-0-0-0-0-0-0----2-----2---2-----2------------------------------------| 
D|-2-2-2-2-2-2-2-2-2---------------------------------------------------------| 
A|-3-3-3-3-3-3-3-3-3---------------------------------------------------------| 
E|--------------------2---2-----2---2----------------------------------------| 

e|---------------------------------------------------------------------------| 
B|-1-1-1-1--1-1-1-1----------------------------------------------------------| 
G|-2-2-2-2--2-2-2-2----------------------------------------------------------| 
D|-2-2-2-2--2-2-2-2----0-1---------------------------------------------------| 
A|-------------------3-------------------------------------------------------| 
E|-2-2-2-2--1-1-1-1----------------------------------------------------------| 

verse 2 

   'I don't understand the way you thought that it would break your relationship' 

e|---------------------0-------0-----0---------------------------------------| 
B|-3-----3---3-----3-----1-------1-------------------------------------------| 
G|---2-----2---2-----2-----2-------2-----------------------------------------| 
D|---------------------------------------0-1---------------------------------| 
A|---------------------3-----3-------3-3-------------------------------------| 
E|-1---1-----1---1-----------------------------------------------------------| 

       'You could have just hushed, made a fib up, and played by ear' 

e|---------------------0-------0-----0---------------------------------------| 
B|-3-----3---3-----3-----1-------1-------------------------------------------| 
G|---2-----2---2-----2-----2-------2-----------------------------------------| 
D|---------------------------------------0-1---------------------------------| 
A|---------------------3-----3-------3-3-------------------------------------| 
E|-1---1-----1---1-----------------------------------------------------------| 

       'I didn't wanna cause you grief' 'Just think of it as self-release when 

e|---------------------0-------0-----0-------0-------------------------------| 
B|-3-----3---3-----3-----1-------1-----1-------1-----------------------------| 
G|---2-----2---2-----2-----2-------2-----2-----------------------------------| 
D|---------------------------------------------------------------------------| 
A|---------------------3-----3-------3-----3---------------------------------| 
E|-1---1-----1---1-----------------------------------------------------------| 

       nature takes toll on me' 'On me on me on me girl' 

e|---------------------0-------0-----0-------0-------------------------------| 
B|-3-----3---3-----3-----1-------1-----1-------1-----------------------------| 
G|---2-----2---2-----2-----2-------2-----2-----------------------------------| 
D|---------------------------------------------------------------------------| 
A|---------------------3-----3-------3-----3---------------------------------| 
E|-1---1-----1---1-----------------------------------------------------------| 

Pre-Chorus 

             'Don't look at me, don't even say my name' 

e|-1-----1---1-----1-------------5-----5-5-/-10-10-10-10---------------------| 
B|---0-----0---0-----0-----------------5-5-/-10-10-10-10---------------------| 
G|---------------------5-5---5-----5---5-5-/-10-10-10-10---------------------| 
D|-0---0-----0---0-------------5-----5-5-5-/-10-10-10-10---------------------| 
A|---------------------7---7-----7-----7-7-/-12-12-12-12---------------------| 
E|-------------------------------------5-5-/-10-10-10-10---------------------| 

   'Cause once you left me, you jumped right into fame' 'Oh yeah, and now 

e|-10h12-10h12----5--5-5-----------------------------------------------------| 
B|-10----10-------5--5-5-----------------------------------------------------| 
G|-10----10-------5--5-5--------------6-6-6-6-6-6-6-6------------------------| 
D|-10----10-------5--5-5--5-5-5-5-5-5-5-5-5-5-5-5-5-5------------------------| 
A|-10----10-------7--7-7--5-5-5-5-5-5-5-5-5-5-5-5-5-5-----2-3----------------| 
E|-10----10-------5--5-5--3-3-3-3-3-3-3-3-3-3-3-3-3-3-3-5--------------------| 

Chorus (alternate between strumming and fingerpicking) 

             It's all on me girl, it's all on me girl' 

e|-0-0-0-0-0-0-0-0-0--0-0-0-0-0-0-0-3-0--------------------------------------| 
B|-1-1-1-1-1-3-1-3-1--1-1-1-1-1-3-1-1-1--------------------------------------| 
G|-0-0-0-0-0-0-0-0-0--2-2-2-2-2-2-2-2-2--------------------------------------| 
D|-2-2-2-2-2-2-2-2-2--3-3-3-3-3-3-3-3-3--------------------------------------| 
A|-3-3-3-3-3-3-3-3-3---------------------------------------------------------| 
E|---------------------------------------------------------------------------| 

             'I trusted you but now, it's all on me girl' 

e|-0-0-0-0-0-0-0-3-0--0-0-0-0-0-3-0-3-0--------------------------------------| 
B|-1-1-1-1-1-3-1-1-1--1-1-1-1-1-1-1-1-1--------------------------------------| 
G|-0-0-0-0-0-0-0-0-0--2-2-2-2-2-2-2-2-2--------------------------------------| 
D|-2-2-2-2-2-2-2-2-2--3-3-3-3-3-3-3-3-3--------------------------------------| 
A|-3-3-3-3-3-3-3-3-3---------------------------------------------------------| 
E|---------------------------------------------------------------------------| 

             ' ? to forget, searching to 

e|-0-0-0-0-0-0-0-3-0--0-0-0-0-0-3-0-3-0--------------------------------------| 
B|-1-1-1-1-1-3-1-1-1--1-1-1-1-1-1-1-1-1--------------------------------------| 
G|-0-0-0-0-0-0-0-0-0--2-2-2-2-2-2-2-2-2--------------------------------------| 
D|-2-2-2-2-2-2-2-2-2--3-3-3-3-3-3-3-3-3--------------------------------------| 
A|-3-3-3-3-3-3-3-3-3---------------------------------------------------------| 
E|---------------------------------------------------------------------------| 

   regret' 'the bad things that I've done, guess I'm a bad luck veteran' 

e|-0-0-0-0-0-0-0-3-0---------------------------------------------------------| 
B|-1-1-1-1-1-3-1-1-1--1-----1---1-----1--------------------------------------| 
G|-0-0-0-0-0-0-0-0-0----2-----2---2-----2------------------------------------| 
D|-2-2-2-2-2-2-2-2-2---------------------------------------------------------| 
A|-3-3-3-3-3-3-3-3-3---------------------------------------------------------| 
E|--------------------2---2-----2---2----------------------------------------| 

e|---------------------------------------------------------------------------| 
B|-1-1-1-1--1-1-1-1----------------------------------------------------------| 
G|-2-2-2-2--2-2-2-2----------------------------------------------------------| 
D|-2-2-2-2--2-2-2-2----0-1---------------------------------------------------| 
A|-------------------3-------------------------------------------------------| 
E|-2-2-2-2--1-1-1-1----------------------------------------------------------| 

BRIDGE 

         'On me on me on me girl, on me on me on me girl' 

e|---------------------------------------------------------------------------| 
B|-3-----3---3-----3----3-----3---3-----3------------------------------------| 
G|---2-----2---2-----2----0-----0---0-----0----------------------------------| 
D|---------------------------------------------------------------------------| 
A|-1---1-----1---1------2---2-----2---2--------------------------------------| 
E|---------------------------------------------------------------------------| 

         'On me on me on me girl, on me on me' 

e|---------------------------------------------------------------------------| 
B|-5-----5---5-----5----5-----5---5-----5------------------------------------| 
G|---3-----3---3-----3----4-----4---4-----4----------------------------------| 
D|---------------------------------------------------------------------------| 
A|-3---3-----3---3------4---4-----4---4--------------------------------------| 
E|---------------------------------------------------------------------------| 

       'You told your closest sis' 'You made it seem like bliss, but 

e|---------------------------------------------------------------------------| 
B|-6-6-6---------------5-5-5-------------------------------------------------| 
G|-----------4-4-4---------------2-2-2---------------------------------------| 
D|-3-3-3---------------------------------------------------------------------| 
A|-----------2-2-2-----7-7-7-----0-0-0---------------------------------------| 
E|---------------------------------------------------------------------------| 

   I don't recall no kiss'              'And now 

e|--------------------------------------3------------------------------------| 
B|-3-----3---3-----3--------------------3------------------------------------| 
G|---2-----2---2-----2--4-4-4-4-4-4-4-4-4------------------------------------| 
D|----------------------3-3-3-3-3-3-3-3-3------------------------------------| 
A|-1---1-----1---1------5-5-5-5-5-5-5-5-5------------------------------------| 
E|----------------------3-3-3-3-3-3-3-3-3------------------------------------| 

Chorus 

   It's all on me girl'      'It's all on me girl' 

e|-3-------------------------8-----------------------------------------------| 
B|-5-------------------------10----------------------------------------------| 
G|-4-------------------------9-----------------------------------------------| 
D|-5-------------------------10----------------------------------------------| 
A|-3-------------------------8-----------------------------------------------| 
E|---------------------------------------------------------------------------| 

   'I trusted you but, now it's all on me girl' 

e|-3-------------------------8-----------------------------------------------| 
B|-5-------------------------10----------------------------------------------| 
G|-4-------------------------9-----------------------------------------------| 
D|-5-------------------------10----------------------------------------------| 
A|-3-------------------------8-----------------------------------------------| 
E|---------------------------------------------------------------------------| 

   '? to forget, searching to 

e|-3-------------------------8-----------------------------------------------| 
B|-5-------------------------10----------------------------------------------| 
G|-4-------------------------9-----------------------------------------------| 
D|-5-------------------------10----------------------------------------------| 
A|-3-------------------------8-----------------------------------------------| 
E|---------------------------------------------------------------------------| 

   regret' 'The bad things that I've done' 'Guess, guess I'm a, guess I'm a bad luck veteran' 
  
                             PM------------------------------------------| 
e|-3-------------------------------------------------------------------------| 
B|-5-------------------------1-1-1-1-1-1-1-1-1-1-1-1-1-1-1-1-1-1-1-1-1-1-1---| 
G|-4-------------------------2-2-2-2-2-2-2-2-2-2-2-2-2-2-2-2-2-2-2-2-2-2-2---| 
D|-5-------------------------2-2-2-2-2-2-2-2-2-2-2-2-2-2-2-2-2-2-2-2-2-2-2---| 
A|-3-------------------------------------------------------------------------| 
E|---------------------------2-2-2-2-2-2-2-2-2-2-2-2-2-2-2-2-2-2-2-2-2-2-2---| 

e|---------------------------------------------------------------------------| 
B|-1-1-1-1--1-1-1-1----------------------------------------------------------| 
G|-2-2-2-2--2-2-2-2----------------------------------------------------------| 
D|-2-2-2-2--2-2-2-2----------------------------------------------------------| 
A|---------------------------------------------------------------------------| 
E|-2-2-2-2--1-1-1-1----------------------------------------------------------| 

************************************ 

| h   Hammer-on 
| /   Slide up 
| PM  Palm mute 

************************************ 
  

top 5 | cosmo pyke
top rock'n roll
Outras músicas do artista letras do(a) Cosmo Pyke
Top cifras »Top artistas »
Petaxxon Comunicação Online
Cifras.com.br - Melhor e mais completo site de cifras e tablaturas do Brasil
Mais de 1 milhão de acordes de músicas cadastradas desde 2003
As informações contidas no nosso site são colaborações de seus usuários e podem conter erros, sendo assim, não nos responsabilizamos sobre nenhuma destas.
close
menos
mais
close
Cor dos acordes:

Cor da letra:

 

save
close
close
 
redimensionar