Cifras e Tablaturas
Cosmo Pyke

Cosmo Pyke

Great Dane

Cifras Cancelar Versão de Impressão

Cosmo Pyke - Great Dane

Tom:

  			Intro 
0:03 
e|-------8-----------8-----------8-----------8-------------------------------| 
B|----8--10-------8--10-------8--10-------8--10------------------------------| 
G|----7--9--------7--9--------7--9--------7--9-------------------------------| 
D|----9--10-------9--10-------9--10-------9--10------------------------------| 
A|-------8-----------8-----------8-----------8-------------------------------| 
E|-8-----------8-----------8-----------8-------------------------------------| 

0:18 
e|-------8--8-10-12-10-8--------8--8-10-12-10-8--------8--8-10-12-10-8-------| 
B|----8--10------------------8--10------------------8--10--------------------| 
G|----7--9-------------------7--9-------------------7--9---------------------| 
D|----9--10------------------9--10------------------9--10--------------------| 
A|-------8----------------------8----------------------8---------------------| 
E|-8----------------------8----------------------8---------------------------| 

0:29 
e|-----------5----1--| 
B|-8----8----5----3--| 
G|-7----7----5----1--| 
D|-6----6----5----3--| 
A|-7----x----7-------| 
E|------6----5-------| 

0:33 
e|-------8--8-10-12-10-8--------8--8-10-12-10-8--------8--8-10-12-10-8-------| 
B|----8--10------------------8--10------------------8--10--------------------| 
G|----7--9-------------------7--9-------------------7--9---------------------| 
D|----9--10------------------9--10------------------9--10--------------------| 
A|-------8----------------------8----------------------8---------------------| 
E|-8----------------------8----------------------8---------------------------| 

0:44 
e|-----------5----3----------5--1--| 
B|-8----8----5----5----8--8--5--3--| 
G|-7----7----5----3----7--7--5--1--| 
D|-6----6----5----5----6--6--5--3--| 
A|-7----x----7---------7--x--7-----| 
E|------6----5------------6--5-----| 

verse 1 
0:51 
e|-------8--8-10-12-10-8--------8--8-10-12-10-8--------8--8-10-12-10-8-------| 
B|----8--10------------------8--10------------------8--10--------------------| 
G|----7--9-------------------7--9-------------------7--9---------------------| 
D|----9--10------------------9--10------------------9--10--------------------| 
A|-------8----------------------8----------------------8---------------------| 
E|-8----------------------8----------------------8---------------------------| 

1:02 
e|-----------5----1--| 
B|-8----8----5----3--| 
G|-7----7----5----1--| 
D|-6----6----5----3--| 
A|-7----x----7-------| 
E|------6----5-------| 

1:06 
e|-------8--8-10-12-10-8--------8--8-10-12-10-8--------8--8-10-12-10-8-------| 
B|----8--10------------------8--10------------------8--10--------------------| 
G|----7--9-------------------7--9-------------------7--9---------------------| 
D|----9--10------------------9--10------------------9--10--------------------| 
A|-------8----------------------8----------------------8---------------------| 
E|-8----------------------8----------------------8---------------------------| 

1:16 
e|-----------5----1--| 
B|-8----8----5----3--| 
G|-7----7----5----1--| 
D|-6----6----5----3--| 
A|-7----x----7-------| 
E|------6----5-------| 

Pre-Chorus 
1:20 
e|-0-0---3-1-0---0---------------0-----3-1-0---0-----------------------------| 
B|-1---1-------1-0--0h1p0-0h1p0--1-1---------1-0-0--0h1p0-0h1p0--------------| 
G|-2-------------0---------------2---2---------0-----------------------------| 
D|-3-------------2---------------3-------------2-----------------------------| 
A|---------------------------------------------------------------------------| 
E|---------------------------------------------------------------------------| 

1:27 
e|-0-----3-1-0--1-------1--3-3----4------------------------------------------| 
B|-1-1----------1---1------3---3--4------------------------------------------| 
G|-2---2--------1-1---1----4------4------------------------------------------| 
D|-3-----------------------3------4------------------------------------------| 
A|-------------------------5------6------------------------------------------| 
E|-------------------------3------4------------------------------------------| 

Chorus 
1:34 
e|-5--5h7p5-4h6p4-3h5p3-----0--------------0---------------------------------| 
B|-5--5-----4-----3------5--1--1h3p1----3--0---------------------------------| 
G|-5--5-----4-----3------5--2--------2--2--1---------------------------------| 
D|-5--5-----4-----3------5--3-----------3--2---------------------------------| 
A|-7--7-----6-----5---------------------2--2---------------------------------| 
E|-5--5-----4-----3------------------------0---------------------------------| 

1:42 
e|-5--5h7p5-4h6p4-3h5p3-----0--------0---------------------------------------| 
B|-5--5-----4-----3------5--1-----3--0---------------------------------------| 
G|-5--5-----4-----3------5--2-----2--1---------------------------------------| 
D|-5--5-----4-----3------5--3-----3--2---------------------------------------| 
A|-7--7-----6-----5---------------2--2---------------------------------------| 
E|-5--5-----4-----3------------------0---------------------------------------| 

1:49 
e|-5--5h7p5-4h6p4-3h5p3-----0--------------0---------------------------------| 
B|-5--5-----4-----3------5--1--1h3p1----3--0---------------------------------| 
G|-5--5-----4-----3------5--2-----------2--1---------------------------------| 
D|-5--5-----4-----3------5--3-----------3--2---------------------------------| 
A|-7--7-----6-----5---------------------2--2---------------------------------| 
E|-5--5-----4-----3------------------------0---------------------------------| 

1:56 
e|-5--5h7p5-4h6p4-3h5p3-----0--------0---------------------------------------| 
B|-5--5-----4-----3------5--1-----3--0---------------------------------------| 
G|-5--5-----4-----3------5--2-----2--1---------------------------------------| 
D|-5--5-----4-----3------5--3-----3--2---------------------------------------| 
A|-7--7-----6-----5---------------2--2---------------------------------------| 
E|-5--5-----4-----3------------------0---------------------------------------| 

2:04 
e|-8-----------8--8-10-12-10-8--------8--8-10-12-10-8------------------------| 
B|-10-------8--10------------------8--10-------------------------------------| 
G|-9--------7--9-------------------7--9--------------------------------------| 
D|-10-------9--10------------------9--10-------------------------------------| 
A|-8-----------8----------------------8--------------------------------------| 
E|-------8----------------------8--------------------------------------------| 

2:13 
e|-------5--1--| 
B|-8--8--5--3--| 
G|-7--7--5--1--| 
D|-6--6--5--3--| 
A|-7--x--7-----| 
E|----6--5-----| 

2:17 
e|-------8------------------8--8-10-12-10-8--------8--8-10-12-10-8-----------| 
B|----8--10-8h10---8-----8--10------------------8--10------------------------| 
G|----7--9-------9-------7--9-------------------7--9-------------------------| 
D|----9--10--------------9--10------------------9--10------------------------| 
A|-------8------------------8----------------------8-------------------------| 
E|-8------------------8----------------------8-------------------------------| 

2:27 
e|-----------5----1--| 
B|-8----8----5----3--| 
G|-7----7----5----1--| 
D|-6----6----5----3--| 
A|-7----x----7-------| 
E|------6----5-------| 

Pre-Chorus 
2:31 
e|-0-0---3-1-0---0---------------0-----3-1-0---0-----------------------------| 
B|-1---1-------1-0--0h1p0-0h1p0--1-1---------1-0-0--0h1p0-0h1p0--------------| 
G|-2-------------0---------------2---2---------0-----------------------------| 
D|-3-------------2---------------3-------------2-----------------------------| 
A|---------------------------------------------------------------------------| 
E|---------------------------------------------------------------------------| 

2:38 
e|-0-----3-1-0--1-------1--3---3--4------------------------------------------| 
B|-1-1----------1---1------3---3--4------------------------------------------| 
G|-2---2--------1-1---1----4---4--4------------------------------------------| 
D|-3-----------------------3---3--4------------------------------------------| 
A|-------------------------5---5--6------------------------------------------| 
E|-------------------------3---3--4------------------------------------------| 

Chorus 
2:45 
e|-5--5h7p5-4h6p4-3h5p3-----0--------0---------------------------------------| 
B|-5--5-----4-----3------5--1-----3--0---------------------------------------| 
G|-5--5-----4-----3------5--2-----2--1---------------------------------------| 
D|-5--5-----4-----3------5--3-----3--2---------------------------------------| 
A|-7--7-----6-----5---------------2--2---------------------------------------| 
E|-5--5-----4-----3------------------0---------------------------------------| 

2:53 
e|-5--5h7p5-4h6p4-3h5p3-----0--------0---------------------------------------| 
B|-5--5-----4-----3------5--1-----3--0---------------------------------------| 
G|-5--5-----4-----3------5--2-----2--1---------------------------------------| 
D|-5--5-----4-----3------5--3-----3--2---------------------------------------| 
A|-7--7-----6-----5---------------2--2---------------------------------------| 
E|-5--5-----4-----3------------------0---------------------------------------| 

3:00 
e|-5--5h7p5-4h6p4-3h5p3-----0--------0---------------------------------------| 
B|-5--5-----4-----3------5--1-----3--0---------------------------------------| 
G|-5--5-----4-----3------5--2-----2--1---------------------------------------| 
D|-5--5-----4-----3------5--3-----3--2---------------------------------------| 
A|-7--7-----6-----5---------------2--2---------------------------------------| 
E|-5--5-----4-----3------------------0---------------------------------------| 

3:07 
e|-5--5h7p5-4h6p4-3h5p3-----0--------0---------------------------------------| 
B|-5--5-----4-----3------5--1-----3--0---------------------------------------| 
G|-5--5-----4-----3------5--2-----2--1---------------------------------------| 
D|-5--5-----4-----3------5--3-----3--2---------------------------------------| 
A|-7--7-----6-----5---------------2--2---------------------------------------| 
E|-5--5-----4-----3------------------0---------------------------------------| 

3:15 
e|-8--8-10-12-10-8--------8--8-10-12-10-8--------8--8-10-12-10-8-------------| 
B|-10------------------8--10------------------8--10--------------------------| 
G|-9-------------------7--9-------------------7--9---------------------------| 
D|-10------------------9--10------------------9--10--------------------------| 
A|-8----------------------8----------------------8---------------------------| 
E|------------------8----------------------8---------------------------------| 

3:24 
e|-------5--1--| 
B|-8--8--5--3--| 
G|-7--7--5--1--| 
D|-6--6--5--3--| 
A|-7--x--7-----| 
E|----6--5-----| 

3:28 
e|-------8--8-10-12-10-8--------8--8-10-12-10-8--------8--8-10-12-10-8-------| 
B|----8--10------------------8--10------------------8--10--------------------| 
G|----7--9-------------------7--9-------------------7--9---------------------| 
D|----9--10------------------9--10------------------9--10--------------------| 
A|-------8----------------------8----------------------8---------------------| 
E|-8----------------------8----------------------8---------------------------| 

3:38 
e|-----------5----1--| 
B|-8----8----5----3--| 
G|-7----7----5----1--| 
D|-6----6----5----3--| 
A|-7----x----7-------| 
E|------6----5-------| 

verse 2 
3:42 
e|-------8--8-10-12-10-8--------8--8-10-12-10-8--------8--8-10-12-10-8-------| 
B|----8--10------------------8--10------------------8--10--------------------| 
G|----7--9-------------------7--9-------------------7--9---------------------| 
D|----9--10------------------9--10------------------9--10--------------------| 
A|-------8----------------------8----------------------8---------------------| 
E|-8----------------------8----------------------8---------------------------| 

3:52 
e|-----------5----1--| 
B|-8----8----5----3--| 
G|-7----7----5----1--| 
D|-6----6----5----3--| 
A|-7----x----7-------| 
E|------6----5-------| 

Pre-Chorus 
3:56 
e|-0-0---3-1-0---0---------------0-----3-1-0---0-----------------------------| 
B|-1---1-------1-0--0h1p0-0h1p0--1-1---------1-0-0--0h1p0-0h1p0--------------| 
G|-2-------------0---------------2---2---------0-----------------------------| 
D|-3-------------2---------------3-------------2-----------------------------| 
A|---------------------------------------------------------------------------| 
E|---------------------------------------------------------------------------| 

4:03 
e|-0-----3-1-0--1-------1--3-----3--4------------------------------------------| 
B|-1-1----------1---1------3--3--3--4------------------------------------------| 
G|-2---2--------1-1---1----4-----4--4------------------------------------------| 
D|-3-----------------------3-----3--4------------------------------------------| 
A|-------------------------5-----5--6------------------------------------------| 
E|-------------------------3-----3--4------------------------------------------| 

verse 3 
4:11 
e|-5--5h7p5-4h6p4-3h5p3-----0--------0---------------------------------------| 
B|-5--5-----4-----3------5--1-----3--0---------------------------------------| 
G|-5--5-----4-----3------5--2-----2--1---------------------------------------| 
D|-5--5-----4-----3------5--3-----3--2---------------------------------------| 
A|-7--7-----6-----5---------------2--2---------------------------------------| 
E|-5--5-----4-----3------------------0---------------------------------------| 

4:19 
e|-5--5h7p5-4h6p4-3h5p3-----0--------------0---------------------------------| 
B|-5--5-----4-----3------5--1--1h3p1----3--0---------------------------------| 
G|-5--5-----4-----3------5--2-----------2--1---------------------------------| 
D|-5--5-----4-----3------5--3-----------3--2---------------------------------| 
A|-7--7-----6-----5---------------------2--2---------------------------------| 
E|-5--5-----4-----3------------------------0---------------------------------| 

4:27 
e|-5--5h7p5-4h6p4-3h5p3-----0--------------0---------------------------------| 
B|-5--5-----4-----3------5--1--1h3p1----3--0---------------------------------| 
G|-5--5-----4-----3------5--2-----------2--1---------------------------------| 
D|-5--5-----4-----3------5--3-----------3--2---------------------------------| 
A|-7--7-----6-----5---------------------2--2---------------------------------| 
E|-5--5-----4-----3------------------------0---------------------------------| 

4:35 
e|-5--5h7p5-4h6p4-3h5p3-----0--------0---------------------------------------| 
B|-5--5-----4-----3------5--1-----3--0---------------------------------------| 
G|-5--5-----4-----3------5--2-----2--1---------------------------------------| 
D|-5--5-----4-----3------5--3-----3--2---------------------------------------| 
A|-7--7-----6-----5---------------2--2---------------------------------------| 
E|-5--5-----4-----3------------------0---------------------------------------| 

Chorus 
4:42 
e|-5--5h7p5-4h6p4-3h5p3-----0--------------0---------------------------------| 
B|-5--5-----4-----3------5--1--1h3p1----3--0---------------------------------| 
G|-5--5-----4-----3------5--2-----------2--1---------------------------------| 
D|-5--5-----4-----3------5--3-----------3--2---------------------------------| 
A|-7--7-----6-----5---------------------2--2---------------------------------| 
E|-5--5-----4-----3------------------------0---------------------------------| 

4:50 
e|-5--5h7p5-4h6p4-3h5p3-----0--------0---------------------------------------| 
B|-5--5-----4-----3------5--1-----3--0---------------------------------------| 
G|-5--5-----4-----3------5--2-----2--1---------------------------------------| 
D|-5--5-----4-----3------5--3-----3--2---------------------------------------| 
A|-7--7-----6-----5---------------2--2---------------------------------------| 
E|-5--5-----4-----3------------------0---------------------------------------| 

4:57 
e|-5--5h7p5-4h6p4-3h5p3-----0--------0---------------------------------------| 
B|-5--5-----4-----3------5--1-----3--0---------------------------------------| 
G|-5--5-----4-----3------5--2-----2--1---------------------------------------| 
D|-5--5-----4-----3------5--3-----3--2---------------------------------------| 
A|-7--7-----6-----5---------------2--2---------------------------------------| 
E|-5--5-----4-----3------------------0---------------------------------------| 

5:04 
e|-5--5h7p5-4h6p4-3h5p3-----0--------0---------------------------------------| 
B|-5--5-----4-----3------5--1-----3--0---------------------------------------| 
G|-5--5-----4-----3------5--2-----2--1---------------------------------------| 
D|-5--5-----4-----3------5--3-----3--2---------------------------------------| 
A|-7--7-----6-----5---------------2--2---------------------------------------| 
E|-5--5-----4-----3------------------0---------------------------------------| 

5:13 
e|-8--8-10-12-10-8--------8--8-10-12-10-8--------8--8-10-12-10-8-------------| 
B|-10------------------8--10------------------8--10--------------------------| 
G|-9-------------------7--9-------------------7--9---------------------------| 
D|-10------------------9--10------------------9--10--------------------------| 
A|-8----------------------8----------------------8---------------------------| 
E|------------------8----------------------8---------------------------------| 

5:23 
e|-----------5----1--| 
B|-8----8----5----3--| 
G|-7----7----5----1--| 
D|-6----6----5----3--| 
A|-7----x----7-------| 
E|------6----5-------| 

5:26 
e|-1----4----7----7---| 
B|-3----6----9----8---| 
G|-1----4----7----9---| 
D|-3----6----9----10--| 
A|--------------------| 
E|--------------------| 

5:34 
e|-8--8-10-12-10-8--------8--8-10-12-10-8--------8--8-10-12-10-8-------------| 
B|-10------------------8--10------------------8--10--------------------------| 
G|-9-------------------7--9-------------------7--9---------------------------| 
D|-10------------------9--10------------------9--10--------------------------| 
A|-8----------------------8----------------------8---------------------------| 
E|------------------8----------------------8---------------------------------| 

5:43 
e|-----------5----3----------5--| 
B|-8----8----5----5----8--8--5--| 
G|-7----7----5----3----7--7--5--| 
D|-6----6----5----5----6--6--5--| 
A|-7----x----7---------7--x--7--| 
E|------6----5------------6--5--| 

5:48 
e|-1----4----7----7---| 
B|-3----6----9----8---| 
G|-1----4----7----9---| 
D|-3----6----9----10--| 
A|--------------------| 
E|--------------------| 

************************************ 

| x   Dead note 
| h   Hammer-on 
| p   Pull-off 

************************************ 
    	
fixar
fixar inscrever-se

enviado porenviado por: tamamoreira
cifra enviadaCorrigida por: sem correções
logo top cifrasComente
ico música do artistaMúsicas deste artista
ico curtiuCurtiu?
ico destaqueDestaque
Petaxxon Comunicação Online

Cifras.com.br - Melhor e mais completo site de cifras e tablaturas do Brasil Mais de 1 milhão de acordes de músicas cadastradas desde 2003
As informações contidas no nosso site são colaborações de seus usuários e podem conter erros, sendo assim, não nos responsabilizamos sobre nenhuma destas.

close
menos
mais
close
Cor dos acordes:

Cor da letra:

close
Alinhar acordes a direita Alinhar acordes a esquerda Alinhar acordes em baixo Alinhar acordes no topo
close
  Mostrar todos os acordes Esconder acordes muito fáceis Esconder acordes fáceis Esconder acordes intermediários
redimensionar
glossário