Cifras e Tablaturas
Cosmonauts

Cosmonauts

Shaker

Cifras Cancelar Versão de Impressão Print

Cosmonauts - Shaker

Tom: A

  • 0:00 / 0:00
  			
Main Rhythm Part (Plays in beginning, and then throughout all the parts except for the Chorus)) 

E---------------| 
B---------12----| 
G---------------| 
D--9-9-9--------| 
A---------------| 
E---------------| 

Main Lead / Verse A 

E-----------------------------| 
B--10-10-10-9-9-7-------------| 
G------------------8-9--------| 
D----------------------7-9----| 
A-----------------------------| 
E-----------------------------| 

E-----------------------------| 
B--10-10-10-9-9-7-------------| 
G------------------9-8--------| 
D-----------------------7-9---| 
A-----------------------------| 
E-----------------------------| 

E----------------------------------------| 
B--10-10-10-9-9--------9-10-9-7----------| 
G----------------8-9---------------------| 
D---------------------------------7-9----| 
A----------------------------------------| 
E----------------------------------------| 

Variation on Verse A (played towards the end of song) 

E-------------------------------| 
B--10-10-10-9-9-7---10-10-9--7--| 
G-------------------------------| 
D-------------------------------| 
A-------------------------------| 
E-------------------------------| 

E-------------------------------| 
B--10-10-10-9-9-7---10-10-9--7--| 
G-------------------------------| 
D-------------------------------| 
A-------------------------------| 
E-------------------------------| 

E----------------------------------------| 
B--10-10-10-9-9--------9-10-9-7----------| 
G----------------8-9---------------------| 
D---------------------------------7-9----| 
A----------------------------------------| 
E----------------------------------------| 

Main Lead / Verse B 

E-----------------------------------| 
B-----------------------------------| 
G-----------------------------------| 
D-----------------------------------|       (x2) 
A-9-9-9-9-9-9-9--2-2-2-2-2-2-2-2-2--| 
E-----------------------------------| 

E----------------------------------------| 
B----------------------------------------| 
G----------------------------------------| 
D----------------------------------------|     (x1) 
A-9-9-9-9-9-9-9-7-7-7-7-7-12-12-12-12-12-| 
E----------------------------------------| 

E-----------------------------------| 
B-----------------------------------| 
G-----------------------------------| 
D-----------------------------------|       (x1) 
A-9-9-9-9-9-9-9--2-2-2-2-2-2-2-2-2--| 
E-----------------------------------| 

Main Lead / Chorus 

E-----------------------------------| 
B-----------------------------------| 
G-----------------------------------| 
D-----------------------------------| 
A-12---12-9---9-7-------------------| 
E-----------------------------------| 

Structure: 

Rhythm Part (x8) 
Verse A (x2) 
Verse B (x1) 
Verse A (x2) 
Verse B (x1) 
Chorus (x1) 
Rhythm Part (x8) 
Verse A (x2) 
Verse B (x1) 
Verse A (x1) 
Variation on Verse A (x1) 
Chorus (x1) 
    	

enviado porenviado por: hebealmeida
cifra enviadaCorrigida por: sem correções
logo top cifrasComente
ico música do artistaMúsicas deste artista
ico curtiuCurtiu?
ico destaqueDestaque
Petaxxon Comunicação Online

Cifras.com.br - Melhor e mais completo site de cifras e tablaturas do Brasil Mais de 1 milhão de acordes de músicas cadastradas desde 2003
As informações contidas no nosso site são colaborações de seus usuários e podem conter erros, sendo assim, não nos responsabilizamos sobre nenhuma destas.

close
menos
mais
close
Cor dos acordes:

Cor da letra:

close
Alinhar acordes a direita Alinhar acordes a esquerda Alinhar acordes em baixo Alinhar acordes no topo
close
  Mostrar todos os acordes Esconder acordes muito fáceis Esconder acordes fáceis Esconder acordes intermediários
redimensionar
glossário