Cifras e Tablaturas
Cifras Cancelar Versão de Impressão
cifras

Counterparts - Rope

fixar na tela  
Exibindo: vídeo-aula ver clipes redimensionar

Tom:

C

ver outros tons
  

Tuning: C G C F A D 
Playthrough: https://www.youtube.com/watch?v=vxVUPLAZsZs 


Riff 1a, Guitar 1 & 2 - 00:00 - 00:08 
- ----------------------------------------------------------------- 
- ----------------------------------------------------------------- 
- ----------------------------------------------------------------- 
- -----------------------------------------5-------5\3---3---3----- 
- -5-5---------5-5-5-5-----------------5-5-5-5-5-5-5\3-3-3---1----- 
- -5-5---------5-5-5-5-----------------5-5-5-5-5-5-5\3-3-3---3----- 
PM .......................................   .....     . 
- ----------------------------------------------------------------- 
- ----------------------------------------------------------------- 
- -----3---3-----------3---3---3---3------------------------------- 
- -------7---7-----------7---7---7---7-----5-------5\3---3---3----- 
- -5-5---------5-5-5-5-----------------5-5-5-5-5-5-5\3-3-3---1----- 
- -5-5---------5-5-5-5-----------------5-5-5-5-5-5-5\3-3-3---3----- 
PM ...         .......                 ...   .....     . 


- ----------------------------------------------------------------- 
- -----------------3----------------------------------------------- 
- -----------------3----------------------------------------------- 
- -1---------------1-----------------------------------------3-3-3- 
- -1---------------------------------------------0-5p3---3---1-1-1- 
- -1-------------------------------------------1-------0---0-3-3-3- 
PM                                             ...     .   . 
- ----------------------------------------------------------------- 
- -----------------3----------------------------------------------- 
- -----------------3----------------------------------------------- 
- -1---------------1-----------------------------------------3-3-3- 
- -1---------------------------------------------0-5p3---3---1-1-1- 
- -1-------------------------------------------1-------0---0-3-3-3- 
PM                                             ...     .   . 


Riff 1b - 00:03 - 00:08 
- ------------------------------------------------------------------------------------------- 
- -----------------6---------------6------------------------------------------11----10-10-10- 
- -------------5---------5---------7------------------------------10-------10-10-10-10-10-10- 
- /7-----8---------------------8---8-----------------------10-8-8----10-10-8--8--8--8--8--8-- 
- ------------------------------------------------------------------------------------------- 
- -------------------------------------------------8-8-8-8----------------------------------- 
PM                                                 .......    ...          ..    .. 


Riff 2a, Guitar 1 & 2 - 00:08 - 00:26 
- ----------------------------------------------------------------- 
- ----------------------------------------------------------------- 
- ----------------------------------------------------------------- 
- -------------------------------------------------5\3---3---3-3/5- 
- -5-5---------555-5-5-----------------5-5-----555-5\3-3-3---1-3/5- 
- -5-5---------555-5-5-----------------5-5-----555-5\3-3-3-----3/5- 
PM ...         .......                 ...     ...     . 
- ----------------------------------------------------------------- 
- ----------------------------------------------------------------- 
- -----3---3-----------3---3---3---3-------3----------------------- 
- -------7---7-----------7---7---7---7-----7-------5\3---3---3-3/5- 
- -5-5---------555-5-5-----------------5-5---5-555-5\3-3-3---1-3/5- 
- -5-5---------555-5-5-----------------5-5---5-555-5\3-3-3-----3/5- 
PM ...         .......                 ...   .....     . 


- ----------------------------------------------------------------- 
- ----------------------------------------------------------------- 
- ----------------------------------------------------------------- 
- -------------------------------------------------5\3---3---3----- 
- -5-5---------555-555-----------------5-5-----555-5\3-3-3---1----- 
- -5-5---------555-555-----------------5-5-----555-5\3-3-3---3----- 
PM ...         .......                 ...     ...     . 
- ----------------------------------------------------------------- 
- -----------------------------3----------------------------------- 
- -----3---3-----------3---3-----3-3-------3----------------------- 
- -------7---7-----------7---7-------------7-------5\3---3---3----- 
- -5-5---------555-555---------------5-5-5---5-555-5\3-3-3---1----- 
- -5-5---------555-555---------------5-5-5---5-555-5\3-3-3---3----- 
PM ...         .......               .....   .....     . 


- ----------------------------------------------------------------- 
- ----------------------------------------------------------------- 
- ----------------------------------------------------------------- 
- -------------------------------------------------1-----1---3----- 
- -1-1---------111-1-1-----------------1-1-----111-1-1-1-1---3----- 
- -1-1---------111-1-1-----------------1-1-----111-1-1-1-1---3----- 
PM ...............................................   ... 
- ----------------------------------------------------------------- 
- ----------------------------------------------------------------- 
- ----------------------------------------------------------------- 
- -------------------------------------------------1-----1---3----- 
- -1-1---------111-1-1-----------------1-1-----111-1-1-1-1---3----- 
- -1-1---------111-1-1-----------------1-1-----111-1-1-1-1---3----- 
PM ...............................................   ... 


- ----------------------------------------------------------------- 
- ----------------------------------------------------------------- 
- ----------------------------------------------------------------- 
- -----------------------------------------5-------3--------------- 
- -5-5---------555-555---------------5-5-5-5-5-3-3-3---3-----1-1-1- 
- -5-5---------555-555---------------5-5-5-5-5-3-3-3---3-2b--1-1-1- 
PM ...         .......               .....   .....     .     ..... 
- ----------------------------------------------------------------- 
- -----------------------------3----------------------------------- 
- -----3---3-----------3---3-----3-3-------3----------------------- 
- -------7---7-----------7---7-------------7----------------------- 
- -5-5---------555-555---------------5-5-5---5-3-3-----------1-1-1- 
- -5-5---------555-555---------------5-5-5---5-3-3-----------1-1-1- 
PM ...         .......               .....   .....           ..... 


Riff 2b - 00:17 - 00:21 
- ---------------------------------------------------------------------------- 
- -11------10-10-------------------------11------10-10------------------------ 
- --------------------------------7----7-----------------------------7-------- 
- ----8-10-------8-7-8-7-8-7-8-10---10------8-10-------8-7-8-7-8-7-8---10-8-7- 
- ---------------------------------------------------------------------------- 
- ---------------------------------------------------------------------------- 
PM    ....       .......................    ....       ............. 


Riff 3a - 00:21 - 00:48 
- -------10--------8---------------------10------8-------6--------- 
- -----------------------------------------------------------10---- 
- -------------10----------------------------10-------------------- 
- -8-------------------------------8-8-8-----------7-7-7---------7- 
- ----------------------------------------------------------------- 
- ----------------------------------------------------------------- 
PM                                 .....           ..... 

- -------------------------------------------------17-------------13------------------------------- 
- -11-------11-------11----10-------10-------10-------15-------13----13\11-11-11-11-10-10-10-10-10- 
- -10-10-10-10-10-10-10-10-10-10-10-10-10-10-10-10-------17\15------------------------------------- 
- -8--8--8--8--8--8--8--8--8--8--8--8--8--8--8--8-------------------------------------------------- 
- ------------------------------------------------------------------------------------------------- 
- ------------------------------------------------------------------------------------------------- 
PM    .....    .....    ..    .....    .....    ..                         ....................... 

- -------10--------8---------------------10------8-------6--------- 
- -----------------------------------------------------------10---- 
- -------------10----------------------------10-------------------- 
- -8-------------------------------8-8-8-----------7-7-7---------7- 
- ----------------------------------------------------------------- 
- ----------------------------------------------------------------- 
PM                                 .....           ..... 

- --------------------------------------------------------------------------------------- 
- -11-------11-------11----10-------10-------10----11-------11-------10--------br--\----- 
- -10-10-10-10-10-10-10-10-10-10-10-10-10-10-10-10-10-10-10-10-10-10-x------------------- 
- -8--8--8--8--8--8--8--8--8--8--8--8--8--8--8--8--7--7--7--7--7--7--7---------br--\---1- 
- -----------------------------------------------------------------------------------0-1- 
- -----------------------------------------------------------------------------------0-1- 
PM    .....    .....    ..    .....    .....    ..    .....    .....                 . 

- ----------------------------------------------------------------- 
- -----------------3----------------------------------------------- 
- -----------------3----------------------------------------------- 
- -----------------1----------------------------------------------- 
- -----------------------------------------------0-5p3---3---1----- 
- ---------------------------------------------1-------0---0------- 
PM                                             ...     .   . 

Riff 3b - 00:21 - 00:48 
- ----------------------------------------------------------------- 
- -3-3---3---3-3-3-3-3---3---3-3-3-------6------------------------- 
- -3-3---3---3-3-3-3-3---3---3-3-3-----------5-----------3--------- 
- -1-1---1---1-1-1-1-1---1---1-1-1---------------8-----------7---3- 
- -1-1---1---1-1-1-1-1---1---1-1-1-5-5-5-----------3-3-3----------- 
- -1-1---1---1-1-1-1-1---1---1-1-1-5-5-5-----------3-3-3----------- 
PM                                 .....           ..... 

- ----------------------------------------------------------------- 
- -3-----3-----3---1-----1-----1----------------------------------- 
- -3-----3-----3---3-----3-----3----------------------------------- 
- -1-----1-----1---1-----1-----1---5-----5----5--3-----3--------- 
- ---1-1---1-1---1---1-1---1-1---1-5-5-5-5-5-55--3-3-3-3-3-3-3-3- 
- ---1-1---1-1---1---1-1---1-1---1-5-5-5-5-5-5-----3-3-3-3-3-3-3-3- 
PM   ...   ...   .   ...   ...   .   ...   ...       ...   ....... 

- ----------------------------------------------------------------- 
- -3-3---3---3-3-3-3-3---3---3-3-3-------6------------------------- 
- -3-3---3---3-3-3-3-3---3---3-3-3-----------5-----------3--------- 
- -1-1---1---1-1-1-1-1---1---1-1-1---------------8-----------7---3- 
- -1-1---1---1-1-1-1-1---1---1-1-1-5-5-5-----------3-3-3----------- 
- -1-1---1---1-1-1-1-1---1---1-1-1-5-5-5-----------3-3-3----------- 
PM                                 .....           ..... 

- ----------------------------------------------------------------- 
- -3-----3-----3---1-----1-----1----------------------------------- 
- -3-----3-----3---3-----3-----3----------------------------------- 
- -1-----1-----1---1-----1-----1---3-----3-----------------------1- 
- ---1-1---1-1---1---1-1---1-1---1-3-3-3-3-3-35--------------0-1- 
- ---1-1---1-1---1---1-1---1-1---1-3-3-3-3-3-3-0---------------0-1- 
PM   ...   ...   .   ...   ...   .   ...   ...                 . 

- ----------------------------------------------------------------- 
- -----------------3----------------------------------------------- 
- -----------------3----------------------------------------------- 
- -----------------1----------------------------------------------- 
- -----------------------------------------------0-5p3---3---1----- 
- ---------------------------------------------1-------0---0------- 
PM                                             ...     .   . 


Riff 4, Guitar 1 & 2 - 00:48 - 01:07 
- ----------------------------------------------------------------- 
- ----------------------------------------------------------------- 
- ----------------------------------------------------------------- 
- -------------------------------------------------5\3---3---3-3/5- 
- -5-5---------555-5-5-----------------5-5-----555-5\3-3-3---1-3/5- 
- -5-5---------555-5-5-----------------5-5-----555-5\3-3-3-----3/5- 
PM ...         .......                 ...     ...     . 
- ----------------------------------------------------------------- 
- ----------------------------------------------------------------- 
- -----3---3-----------3---3---3---3-------3----------------------- 
- -------7---7-----------7---7---7---7-----7-------5\3---3---3-3/5- 
- -5-5---------555-5-5-----------------5-5---5-555-5\3-3-3---1-3/5- 
- -5-5---------555-5-5-----------------5-5---5-555-5\3-3-3-----3/5- 
PM ...         .......                 ...   .....     . 


- ----------------------------------------------------------------- 
- ----------------------------------------------------------------- 
- ----------------------------------------------------------------- 
- -------------------------------------------------5\3---3---3----- 
- -5-5---------555-555-----------------5-5-----555-5\3-3-3---1----- 
- -5-5---------555-555-----------------5-5-----555-5\3-3-3---3----- 
PM ...         .......                 ...     ...     . 
- ----------------------------------------------------------------- 
- -----------------------------3----------------------------------- 
- -----3---3-----------3---3-----3-3-------3----------------------- 
- -------7---7-----------7---7-------------7-------5\3---3---3----- 
- -5-5---------555-555---------------5-5-5---5-555-5\3-3-3---1----- 
- -5-5---------555-555---------------5-5-5---5-555-5\3-3-3---3----- 
PM ...         .......               .....   .....     . 


- ----------------------------------------------------------------- 
- ----------------------------------------------------------------- 
- ----------------------------------------------------------------- 
- -------------------------------------------------1-----1---3----- 
- -1-1---------111-1-1-----------------1-1-----111-1-1-1-1---3----- 
- -1-1---------111-1-1-----------------1-1-----111-1-1-1-1---3----- 
PM ...............................................   ... 
- ----------------------------------------------------------------- 
- ----------------------------------------------------------------- 
- ----------------------------------------------------------------- 
- -------------------------------------------------1-----1---3----- 
- -1-1---------111-1-1-----------------1-1-----111-1-1-1-1---3----- 
- -1-1---------111-1-1-----------------1-1-----111-1-1-1-1---3----- 
PM ...............................................   ... 


- ------------------------------------------------- 
- ------------------------------------------------- 
- ------------------------------------------------- 
- -----------------------------------------5------- 
- -5-5---------555-555---------------5-5-5-5-5-3-3- 
- -5-5---------555-555---------------5-5-5-5-5-3-3- 
PM ...         .......               .....   ..... 
- ------------------------------------------------- 
- -----------------------------3------------------- 
- -----3---3-----------3---3-----3-3-------3------- 
- -------7---7-----------7---7-------------7------- 
- -5-5---------555-555---------------5-5-5---5-3-3- 
- -5-5---------555-555---------------5-5-5---5-3-3- 
PM ...         .......               .....   ..... 


- ------------------------------------------------------------- 
- ------------------------------------------------------------- 
- ------------------------------------------------------------- 
- -3-------------------3---3---3---7-----------7-------5------- 
- -1---1---1---1---1---1---1---1---3---3---3---3-------3------- 
- -1---1---1---1---1---1---1---1---3---3---3---3-------3------- 
PM     .............                   ..... 
- ------------------------------------------------------------- 
- ---------------------------------------------11------11------ 
- ---------------------------------------------x-------x------- 
- ---------------------3---3---3---10-h12--10--10------8------- 
- ---------------------1---1---1------------------------------- 
- ---------------------1---1---1------------------------------- 
PM                                         . 


Riff 2b - 00:56 - 01:01 


Riff 5, Guitar 1 & 2 - 1:07 - 01:20 
- ----------------------------------------------------------------- 
- ----------------------------------------------------------------- 
- ----------------------------------------------------------------- 
- -3-----------3---------------------------------------1---3------- 
- -1-------1---1---1---1---1---1---1---1---1---1---1---1---3---3--- 
- -1-------1---1---1---1---1---1---1---1---1---1---1---1---3---3--- 
PM         .       .................................           . 
- ----------------------------------------------------------------- 
- -10------11--11--------------------------------------11--11--11-- 
- -10------10--10--10--10--10--10--10--10--10--10--10--10--10--10-- 
- -8-------8---8---8---8---8---8---8---8---8---8---8---8---8---8--- 
- ----------------------------------------------------------------- 
- ----------------------------------------------------------------- 
PM                 .................................. 


- ----------------------------------------------------------------- 
- ----------------------------------------------------------------- 
- -------------5---------------5-------------------3--------------- 
- -7------h8-------8-------8-------8-------------------7-------7--- 
- -5-----------------------------------3---3---3------------------- 
- -5-------------------5---------------3---3---3-----------3------- 
PM                                     ......... 
- ----------------------------------------------------------------- 
- ---------11----------11--------------------------10-------------- 
- -------------10----------10------10--10--10--10------10------10-- 
- /12--------------12----------12------10--10--10----------10------ 
- ----------------------------------------------------------------- 
- ----------------------------------------------------------------- 
                                       .......... 


- ----------------------------------------------------------------- 
- ----------------------------------------------------------------- 
- ----------------------------------------------------------------- 
- -3-----------3---------------3-------3-------3-------3---7------- 
- -1-------1---1---1-1-1---1---1---1-1-1-------1-------1---3------- 
- -1-------1---1---1-1-1---1---1---1-1-1-------1-------1---3------- 
PM         .       .........       ... 
- ----------------------------------------------------------------- 
- -11----------10----------------------10------10------11--10------ 
- -10------10--10--101010--10--10--101010------10------10--10------ 
- -8-------8---8---8-8-8---8---8---8-8-8-------8-------8---8------- 
- ----------------------------------------------------------------- 
- ----------------------------------------------------------------- 
PM         ..      .................... 


- ----------------------------------------------------------------- 
- ----------------------------------------------------------------- 
- ---------5-----------5-------------------8-----------8----------- 
- -8-----------8-----------8-------8-----------10-h12------12------ 
- -5-------------------------------8---------------------------1--- 
- -5---------------5-----------5---8---------------------------1--- 
PM                                                             . 
- ----------------------------------------------------------------- 
- ---------6-----------6-------------------4-----------4----------- 
- -------------7-----------7-------------------7-----------7------- 
- /8---------------8-----------8---7---------------7--------------- 
- -------------------------------------------------------------0--- 
- ----------------------------------------------------------------- 
PM                                                             . 


Riff 6, Guitar 1 & 2 - 01:20 - 01:34 
- ----------------------------------------------------------------- 
- ----------------------------------------------------------------- 
- ----------------------------------------------------------------- 
- -3-------3---3-------3---3---3-------3---3---3-------1--/3------- 
- -1-------1---1---1---1---1---1---1---1---1---1---1---1--/3---0--- 
- -1-------1---1---1---1---1---1---1---1---1---1---1---1--/3---0--- 
PM                 .               .               .           . 
- ----------------------------------------------------------------- 
- -10------11--13------10--10--10------11--11--11------10--10------ 
- -x-------x---x---10--10--10--10--10--10--10--10--10--10--10--10-- 
- -7-------8---10--10--10--10--10--10--10--10--10--10--10--10--10-- 
- ----------------------------------------------------------------- 
- ----------------------------------------------------------------- 
PM                 ..              ..              ..          .. 


- ----------------------------------------------------------------- 
- ----------------------------------------------------------------- 
- -----------------------------------------5-----------5----------- 
- -3-------3---3-------3---3---3---5-----------8-----------8------- 
- -1-------1---1---1---1---1---1---5------------------------------- 
- -1-------1---1---1---1---1---1---5---------------5-----------5--- 
PM                 . 
- ----------------------------------------------------------------- 
- -10------11--13------10--10--10--13------13--15--15--11--11--11-- 
- -x-------x---x---10--10--10--10--x-------x---x---x---14--14--14-- 
- -7-------8---10--10--10--10--10--10------10--12--12--x---x---x--- 
- -----------------------------------------------------13--13--13-- 
- ----------------------------------------------------------------- 
PM                 .. 


- ----------------------------------------------------------------- 
- ----------------------------------------------------------------- 
- ----------------------------------------------------------------- 
- -3-------3---3-------3---3---3-------3---3---3-------1--/3------- 
- -1-------1---1---1---1---1---1---1---1---1---1---1---1--/3---0--- 
- -1-------1---1---1---1---1---1---1---1---1---1---1---1--/3---0--- 
PM                 .               .               .           . 
- ----------------------------------------------------------------- 
- ---------------------6---------------6---------------6----------- 
- -------------5-----------5-------5-------5-------5-------5------- 
- -7-------8-------8-----------8---------------8---------------8--- 
- ----------------------------------------------------------------- 
- ----------------------------------------------------------------- 
PM                 .           .....           .....           . 


- ----------------------------------------------------------------- 
- ----------------------------------------------------------------- 
- -----------------------------------------5-----------5----------- 
- -3-------3---3-------3---3---3---5-----------8-----------8------- 
- -1-------1---1---1---1---1---1---5------------------------------- 
- -1-------1---1---1---1---1---1---5---------------5-----------5--- 
PM                 . 
- ----------------------------------------------------------------- 
- ---------------------6-------------------------------4-------4--- 
- -------------5-----------5-------5-------7---5---7-------7------- 
- -7-------8-------8-----------8----------------------------------- 
- ----------------------------------------------------------------- 
- ----------------------------------------------------------------- 
PM                 .           . 


- --------------------------------- 
- --------------------------------- 
- --------------------------------- 
- -0------------------------------- 
- -0------------------------------- 
- -0------------------------------- 
- 
- --------------------------------- 
- --------------------------------- 
- -7-----------------------br--\--- 
- --------------------------------- 
- --------------------------------- 
- --------------------------------- 


Riff 7, Guitar 1 & 2 - 01:34 - 02:03 
- ----------------------------------------------------------------- 
- ----------------------------------------------------------------- 
- ----------------------------------------------------------------- 
- ---------------------------------3-3-3-3-3-3-3-3-3-3-3-3-3-3-3-3- fade in 
- ---------------------------------7-7-7-7-7-7-7-7-7-7-7-7-7-7-7-7- 
- ----------------------------------------------------------------- 
- 
- ----------------------------------------------------------------- 
- ----------------------------------------------------------------- 
- -8-8-8-8-8-8-8-8-8-8-8-8-8-8-8-8-8-8-8-8-8-8-8-8-8-8-8-8-8-8-8-8- 
- -1212121212121212121212121212121212121212121212121212121212121212 
- -----------------------------------------------------------------  
- ----------------------------------------------------------------- 


- ----------------------------------------------------------------- 
- ----------------------------------------------------------------- 
- ----------------------------------------------------------------- 
- ----------------------------------------------------------------- 
- -0-0-------------------------0-0-0-0---------0-0-0-0-----0-0-0-0- 
- -0-0-------------------------0-0-0-0---------0-0-0-0-----0-0-0-0- 
PM ...                         .......         ......      ....... 

- ----------------------------------------------------------------- 
- ----------------------------------------------------------------- 
- -----8-8-8-8-8-8-8-8-8-8-8-8---------8-8-8-8---------8-8--------- 
- -----121212121212121212121212--------12121212--------1212-------- 
- -0-0-------------------------0-0-0-0---------0-0-0-0-----0-0-0-0- 
- -0-0-------------------------0-0-0-0---------0-0-0-0-----0-0-0-0- 
PM ...                         .......         ......      ....... 


- ----------------------------------------------------------------- 
- ----------------------------------------------------------------- 
- ----------------------------------------------------------------- 
- ----------------------------------------------------------------- 
- -0-0-------------------------0-0-0-0---------0-0-0-0------------- 
- -0-01-1-2-2-3-3-4-4-4-5-5-50-0-0-04-4-5-50-0-0-04-4-------- 
PM ...                         .......         ...... 

- ----------------------------------------------------------------- 
- ----------------------------------------------------------------- 
- -----8-8-8-8-8-8-8-8-8-8-8-8---------8-8-8-8-----8-8-8-8--------- 
- -----121212121212121212121212--------12121212----12121212-------- 
- -0-0-------------------------0-0-0-0---------0-0----------------- 
- -0-0-------------------------0-0-0-0---------0-0----------------- 
PM ...                         .......         ... 


- ----------------------------------------------------------------- 
- ----------------------------------------------------------------- 
- -----8-8-8-8-8-8-8-8-8-8-8-8---------8-8-8-8---------8-8--------- 
- -----121212121212121212121212--------12121212--------1212-------- 
- -0-0-------------------------0-0-0-0---------0-0-0-0-----0-0-0-0- 
- -0-0-------------------------0-0-0-0---------0-0-0-0-----0-0-0-0- 
PM ...                         .......         ......      ....... 
- ----------------------------------------------------------------- 
- ----------------------------------------------------------------- 
- ----------------------------------------------------------------- 
- ----------------------------------------------------------------- 
- -0-0-------------------------0-0-0-0---------0-0-0-0-----0-0-0-0- 
- -0-0-------------------------0-0-0-0---------0-0-0-0-----0-0-0-0- 
PM ...                         .......         ......      ....... 


- ----------------------------------------------------------------- 
- ----------------------------------------------------------------- 
- -----8-8-8-8-8-8-8-8-8-8-8-8---------8-8-8-8---------8-8--------- 
- -----121212121212121212121212--------12121212--------1212-------- 
- -0-0-------------------------0-0-0-0---------0-0-0-0-----3-3-3-3- 
- -0-0-------------------------0-0-0-0---------0-0-0-0-----0-0-0-0- 
PM ...                         .......         ......      ....... 
- ----------------------------------------------------------------- 
- ----------------------------------------------------------------- 
- -----------------------------------------------------3-3--------- 
- -----------------------------------------------------7-7--------- 
- -0-0-------------------------0-0-0-0---------0-0-0-0-----3-3-3-3- 
- -0-0-------------------------0-0-0-0---------0-0-0-0-----0-0-0-0- 
PM ...                         .......         ......      ....... 


- ----------------------------------------------------------------- 
- ----------------------------------------------------------------- 
- -----8-8-8-8-8-8-8-8-8-8-8-8---------8-8-8-8---------8-8--------- 
- -----121212121212121212121212--------12121212--------1212-------- 
- -0-0-------------------------0-0-0-0---------0-0-0-0-----0-0-0-0- 
- -0-0-------------------------0-0-0-0---------0-0-0-0-----0-0-0-0- 
PM ...                         .......         ......      ....... 
- ----------------------------------------------------------------- 
- ----------------------------------------------------------------- 
- ----------------------------------------------------------------- 
- ----------------------------------------------------------------- 
- -0-0-------------------------0-0-0-0---------0-0-0-0-----0-0-0-0- 
- -0-0-------------------------0-0-0-0---------0-0-0-0-----0-0-0-0- 
PM ...                         .......         ......      ....... 


- --------------------------------------------------------------------------------- 
- --------------------------------------------------------------------------------- 
- -----8-8-8-8-8-8-8-8-8-8-8-8---------8-8-8-8---------8-8------------------------- 
- -----121212121212121212121212--------12121212--------1212------------------------ 
- -0-0-------------------------0-0-0-0---------0-0-0-0-----3-3-3-3----------------- 
- -0-0-------------------------0-0-0-0---------0-0-0-0-----0-0-0-0----------------- 
PM ...                         .......         ......      ....... 
- --------------------------------------------------------------------------------- 
- --------------------------------------------------------------------------------- 
- -----------------------------------------------------3-3------------------------- 
- -----------------------------------------------------7-7------------------------- 
- -0-0-------------------------0-0-0-0---------0-0-0-0-----3-3-3-3-3-3-3-3---3-3-3- 
- -0-0-------------------------0-0-0-0---------0-0-0-0-----0-0-0-0-0-0-0-0---0-0-0- 
PM ...                         .......         ......      ....................... 


Riff 8, Guitar 1 & 2 - 02:03 - 02:19 
- ----------------------------------------------------------------- 
- ----------------------------------------------------------------- 
- ----------------------------------------------------------------- 
- -8-8-8-8---8-8-8-8-8-8-8-------------------8-8-8-8-8-8-8-8-8----- 
- -12121212--12121212121212------------------121212121212121212---- 
- -0-0-0-0---0-0-0-0-0-0-0-------------------0-0-0-0-0-0-0-0-0----- 
PM ............................................................... 
- ----------------------------------------------------------------- 
- ----------------------------------------------------------------- 
- ----------------------------------------------------------------- 
- -8-8-8-8---8-8-8-8-8-8-8-------------------8-8-8-8-8-8-8-8-8----- 
- -12121212--12121212121212------------------121212121212121212---- 
- -0-0-0-0---0-0-0-0-0-0-0-------------------0-0-0-0-0-0-0-0-0----- 
PM ............................................................... 


- ----------------------------------------------------------------- 
- ----------------------------------------------------------------- 
- ----------------------------------------------------------------- 
- -8-8-8-8---8-8-8-8-8-8-8-------------------------8-8-8-8-8-8----- 
- -12121212--12121212121212------------0-----------121212121212---- 
- -0-0-0-0---0-0-0-0-0-0-0-------------0-----------0-0-0-0-0-0----- 
PM ............................................................... 
- ----------------------------------------------------------------- 
- ----------------------------------------------------------------- 
- ----------------------------------------------------------------- 
- -8-8-8-8---8-8-8-8-8-8-8-------------------------8-8-8-8-8-8----- 
- -12121212--12121212121212------------0-----------121212121212---- 
- -0-0-0-0---0-0-0-0-0-0-0-------------0-----------0-0-0-0-0-0----- 
PM ............................................................... 


- ----------------------------------------------------------------- 
- ----------------------------------------------------------------- 
- ----------------------------------------------------------------- 
- -8-8-8-8---8-8-8-8-8-8-8-------------------8-8-8-8-8-8-8-8-8----- 
- -12121212--12121212121212------------------121212121212121212---- 
- -0-0-0-0---0-0-0-0-0-0-0-------------------0-0-0-0-0-0-0-0-0----- 
PM ............................................................... 
- ----------------------------------------------------------------- 
- ----------------------------------------------------------------- 
- -------------------------8-8-8-8-8-8-8-8-8----------------------- 
- -8-8-8-8---8-8-8-8-8-8-8-1212121212121212128-8-8-8-8-8-8-8-8----- 
- -12121212--12121212121212------------------121212121212121212---- 
- -0-0-0-0---0-0-0-0-0-0-0-------------------0-0-0-0-0-0-0-0-0----- 
PM ........................                  ..................... 


- ----------------------------------------------------------------- 
- ----------------------------------------------------------------- 
- -----------------------------8-8-8-8----------------------------- 
- -8-8-8-8---8-8-8-8-8-8-------12121212---------------------------- 
- -12121212--1212121212120-------------0-----------0-0-0-0-0-0----- 
- -0-0-0-0---0-0-0-0-0-0-0-------------0-----------0-0-0-0-0-0----- 
PM ............................        ........................... 
- ----------------------------------------------------------------- 
- ----------------------------------------------------------------- 
- -----------------------------8-8-8-8----------------------------- 
- -8-8-8-8---8-8-8-8-8-8-------12121212---------------------------- 
- -12121212--1212121212120-------------0-----------0-0-0-0-0-0----- 
- -0-0-0-0---0-0-0-0-0-0-0-------------0-----------0-0-0-0-0-0----- 
PM ............................        ...........................  
  

cifra enviadasem correções
enviado porenviada por:carlluz
Tom: E ver outros instrumentos
Rope Tom A#A#(um tom abaixo)
Rope Tom BB(meio tom abaixo)
Rope Tom CC(tom original)
Rope Tom C#C#(meio tom acima)
Rope Tom DD(um tom acima)
Subir 1 tomSubir 1/2Descer 1 tomDescer 1/2
top 5 | counterparts
top rock'n roll
Outras músicas do artista letras do(a) Counterparts
Top cifras »Top artistas »
Petaxxon Comunicação Online
Cifras.com.br - Melhor e mais completo site de cifras e tablaturas do Brasil
Mais de 1 milhão de acordes de músicas cadastradas desde 2003
As informações contidas no nosso site são colaborações de seus usuários e podem conter erros, sendo assim, não nos responsabilizamos sobre nenhuma destas.
close
menos
mais
close
Cor dos acordes:

Cor da letra:

 

save
close
close
 
redimensionar