Cifras e Tablaturas
Cradle of Filth

Cradle of Filth

Achingly Beautiful

Cifras Cancelar Versão de Impressão
cifras

Cradle of Filth - Achingly Beautiful

fixar na tela  
Exibindo: vídeo-aula ver clipes redimensionar
  
Intro Riff0:16 

D|--------------------------| 
A|--------------------------| 
F|--------------------------| 
C|--2--3-2-3--0-2--7--6--3--| 
G|--2--3-2-3--0-2--7--6--3--| 
C|--2--3-2-3--0-2--7--6--3--| 

D|------------------------------| 
A|------------------------------| 
F|------------------------------| 
C|--2--3-7--9--10--7--9-10-7-9--| 
G|--2--3-7--9--10--7--9-10-7-9--| 
C|--2--3-7--9--10--7--9-10-7-9--| 


Verse0:32 

D|--------------------------| 
A|--------------------------| 
F|--------------------------| 
C|--2--3-2-3--0-2--7--6--3--| 
G|--2--3-2-3--0-2--7--6--3--| 
C|--2--3-2-3--0-2--7--6--3--| 

D|------------------------------| 
A|------------------------------| 
F|------------------------------| 
C|--2--3-7--9--10--7--9-10-7-9--| 
G|--2--3-7--9--10--7--9-10-7-9--| 
C|--2--3-7--9--10--7--9-10-7-9--| 

D|--------------------------| 
A|--------------------------| 
F|--------------------------| 
C|--2--3--2--0--2--7--6--3--| 
G|--2--3--2--0--2--7--6--3--| 
C|--2--3--2--0--2--7--6--3--| 

D|------------------------------| 
A|------------------------------| 
F|------------------------------| 
C|--2--3-7--9--10--7--9-10-7-9--| 
G|--2--3-7--9--10--7--9-10-7-9--| 
C|--2--3-7--9--10--7--9-10-7-9--| 

Next Part0:49 

Both Guitars 

D|-----------------------| 
A|-----------------------| 
F|-----------------------| 
C|--0--------3--------7--| 
G|--0--------3--------7--| 
C|--0--------3--------7--| 

Rhythm 
            Palm Muted 
   |--------------------------------| 
D|--------------------------------------------------------| 
A|--------------------------------------------------------| 
F|--------------------------------------------------------| 
C|----------------------------------66666666666666667\\\--| 
G|----------------------------------66666666666666667\\\--| 
C|--0000000000000000333333333333333366666666666666667\\\--| 

                 All Palm Muted 
   |-------------------------------------------------| 
D|------------------------------------------------------| 
A|------------------------------------------------------| 
F|------------------------------------------------------| 
C|------------------------------------------------------| 
G|------------------------------------------------------| 
C|--00000000000000003333333333333333777777777777777777--| 

D|------------------------------------------------------| 
A|------------------------------------------------------| 
F|------------------------------------------------------| 
C|--00000000000000003333333333333333777777777777777777--| 
G|--00000000000000003333333333333333777777777777777777--| 
C|--00000000000000003333333333333333777777777777777777--| 

Lead 

D|-----------------------------------------------------------------------------| 
A|-----------------------------------------------------------------------------| 
F|-----------------7777-----------1010-99-77-66-5555---------------------------| 
C|--7777----------------7777-3333--------------------6666-----------666666667--| 
G|-------8888-5555----------------------------------------7777-5555-666666667--| 
C|------------------------------------------------------------------666666667--| 

D|---------------------------------------------------------------| 
A|---------------------------------------------------------------| 
F|--/7--9-10----7--9-10-12-10h12p10-9-7---7-9-10----7-9-7h9p7-6--| 
C|-----------7--------------------------7--------7---------------| 
G|---------------------------------------------------------------| 
C|---------------------------------------------------------------| 

D|--------------------------------------------------------------------------------------------------------| 
A|-/15--17-18-----15--17-18-20-18h20p18-17-15-20b22~~~-t22p17h20t22p15h19t22p14h17t22p13h15t22p13h15-15b--| 
F|------------14--------------------------------------|    ^^^Not too sure, Just improvising^^^     |-----| 
C|--------------------------------------------------------------------------------------------------------| 
G|--------------------------------------------------------------------------------------------------------| 
C|--------------------------------------------------------------------------------------------------------| 



************************************ 

| \  Slide down 
| h  Hammer-on 
| p  Pull-off 
| /  Slide up 
| t  Tapping 
| b  Bend 
| ~  Vibrato 
  

************************************ 
  

top 5 | cradle of filth
top rock'n roll
Outras músicas do artista letras do(a) Cradle of Filth
Top cifras »Top artistas »
Petaxxon Comunicação Online
Cifras.com.br - Melhor e mais completo site de cifras e tablaturas do Brasil
Mais de 1 milhão de acordes de músicas cadastradas desde 2003
As informações contidas no nosso site são colaborações de seus usuários e podem conter erros, sendo assim, não nos responsabilizamos sobre nenhuma destas.
close
menos
mais
close
Cor dos acordes:

Cor da letra:

 

save
close
close
 
redimensionar