Cifras e Tablaturas
Creeper

Creeper

Black Mass

Cifras Cancelar Versão de Impressão
cifras

Creeper - Black Mass

fixar na tela  
Exibindo: vídeo-aula ver clipes redimensionar

Tom:

  
Intro 

e|---------------------------------------------------------------------------| 
B|---------------------------------------------------------------------------| 
G|-------------5-5-5-5----------5----6-6-6-6---------------------------------| 
D|---6-6-6-6---5-5-5-5---3-3-3--5----6-6-6-6-----3-3-3-3-3-3-3-3-3-3-3-3-----|x3 
A|---6-6-6-6---3-3-3-3---3-3-3--3----4-4-4-4-----3-3-3-3-3-3-3-3-3-3-3-3-----| 
E|---4-4-4-4-------------1-1-1-------------------1-1-1-1-1-1-1-1-1-1-1-1-----| 


Chorus 

e|---------------------------------------------------------------------------| 
B|---------------------------------------------------------------------------| 
G|---------------------------------13-13-13-13-13--13-----10-10-10-10-10--8--| 
D|----11-11-11-11----13-13-13-13---13-13-13-13-13--13-----10-10-10-10-10--8--| 
A|----11-11-11-11----13-13-13-13---11-11-11-11-11--10------8--8--8--8--8--6--| 
E|----9--9--9--9-----11-11-11-11---------------------------------------------| 


e|---------------------------------------------------------------------------| 
B|---------------------------------------------------------------------------| 
G|----6-6-6-6-6-6-6---8-8-8-8-8----------------------------------------------| 
D|----6-6-6-6-6-6-6---8-8-8-8-8----------------------------------------------| 
A|----4-4-4-4-4-4-4---6-6-6-6-6----------------------------------------------| 
E|---------------------------------------------------------------------------| 


Verse 

e|---------------------------------------------------------------------------| 
B|---------------------------------------------------------------------------| 
G|-------------5-5-5-5----------5----6-6-6-6---------------------------------| 
D|---6-6-6-6---5-5-5-5---3-3-3--5----6-6-6-6-----3-3-3-3-3-3-3-3-3-3-3-3-----|x3 
A|---6-6-6-6---3-3-3-3---3-3-3--3----4-4-4-4-----3-3-3-3-3-3-3-3-3-3-3-3-----| 
E|---4-4-4-4-------------1-1-1-------------------1-1-1-1-1-1-1-1-1-1-1-1-----| 


Chorus 

e|---------------------------------------------------------------------------| 
B|---------------------------------------------------------------------------| 
G|---------------------------------13-13-13-13-13--13-----10-10-10-10-10--8--| 
D|----11-11-11-11----13-13-13-13---13-13-13-13-13--13-----10-10-10-10-10--8--| 
A|----11-11-11-11----13-13-13-13---11-11-11-11-11--10------8--8--8--8--8--6--| 
E|----9--9--9--9-----11-11-11-11---------------------------------------------| 


e|---------------------------------------------------------------------------| 
B|---------------------------------------------------------------------------| 
G|----6-6-6-6-6-6-6---8-8-8-8-8----------------------------------------------| 
D|----6-6-6-6-6-6-6---8-8-8-8-8----------------------------------------------| 
A|----4-4-4-4-4-4-4---6-6-6-6-6----------------------------------------------| 
E|---------------------------------------------------------------------------| 


Bridge 

e|---------------------------------------------------------------------------| 
B|---------------------------------------------------------------------------| 
G|---------------------------------6-6-6-6-6-6-----8-------------------------| 
D|---6-6-6-6-6-6----3-3-3-3-3-3----6-6-6-6-6-6-----8-------------------------| 
A|---6-6-6-6-6-6----3-3-3-3-3-3----4-4-4-4-4-4-----6-------------------------| 
E|---4-4-4-4-4-4----1-1-1-1-1-1----------------------------------------------| 

e|---------4----------1------------4----------6------------------------------| 
B|---------4----------1------6-6-6-6----8-8-8-8------------------------------| 
G|---5-5-5-5----------1------6-6-6-6----8-8-8-8------------------------------| 
D|---6-6-6-6----3-3-3-3------6-6-6-6----8-8-8-8------------------------------|x2 
A|---6-6-6-6----3-3-3-3------4-4-4-4----6-6-6-6------------------------------| 
E|---4-4-4-4----1-1-1-1------------------------------------------------------| 

e|---------------------------------------------------------------------------| 
B|--------6--------------8---------------------------------------------------| 
G|------6---6----------8---8----------------------------------6----6---------| 
D|----6-------6------8-------8-------6-----6------3----3-----6----6----------| 
A|--4--------------6---------------6-----6-------3----3-----4----4----6------| 
E|-------------------------------4-----3--------1----1-----------------------| 

e|---------------------------------------------------------------------------| 
B|---------------------------------------------------------------------------| 
G|---------------------------------------------------------------------------| 
D|---6-6-6-6-6-6-6-6-6-6-6-6-6-6-6-6-6-6-6-6-6-6-6-6-6-6-6-6-6-6-------------| 
A|---6-6-6-6-6-6-6-6-6-6-6-6-6-6-6-6-6-6-6-6-6-6-6-6-6-6-6-6-6-6-------------| 
E|---4-4-4-4-4-4-4-4-4-4-4-4-4-4-4-4-4-4-4-4-4-4-4-4-4-4-4-4-4-4-------------| 


Chorus 

e|---------------------------------------------------------------------------| 
B|---------------------------------------------------------------------------| 
G|---------------------------------13-13-13-13-13--13-----10-10-10-10-10--8--| 
D|----11-11-11-11----13-13-13-13---13-13-13-13-13--13-----10-10-10-10-10--8--| 
A|----11-11-11-11----13-13-13-13---11-11-11-11-11--10------8--8--8--8--8--6--| 
E|----9--9--9--9-----11-11-11-11---------------------------------------------| 


e|---------------------------------------------------------------------------| 
B|---------------------------------------------------------------------------| 
G|----6-6-6-6-6-6-6---8-8-8-8-8----------------------------------------------| 
D|----6-6-6-6-6-6-6---8-8-8-8-8----------------------------------------------| 
A|----4-4-4-4-4-4-4---6-6-6-6-6----------------------------------------------| 
E|---------------------------------------------------------------------------| 
  

top 5 | creeper
top rock'n roll
Outras músicas do artista letras do(a) Creeper
Top cifras »Top artistas »
Petaxxon Comunicação Online
Cifras.com.br - Melhor e mais completo site de cifras e tablaturas do Brasil
Mais de 1 milhão de acordes de músicas cadastradas desde 2003
As informações contidas no nosso site são colaborações de seus usuários e podem conter erros, sendo assim, não nos responsabilizamos sobre nenhuma destas.
close
menos
mais
close
Cor dos acordes:

Cor da letra:

 

save
close
close
 
redimensionar