Cifras e Tablaturas
Crossfade

Crossfade

Invincible

Cifras Cancelar Versão de Impressão
cifras

Crossfade - Invincible

fixar na tela  
Exibindo: vídeo-aula ver clipes redimensionar

Tom:

  
VERSE/INTRO 
E|-----------------------------------------------------| 
B|-----------------------------------------------------| 
G|-----------------------------------------------------|  X 2 
D|-------7-----------------7b--------------------------| 
A|----5------5-----5----5------5-----5-----------------| 
D|-5------------5-----5-----------5--------------------| 
     I memorised.. 
E|-----------------------------------------------------| 
B|-----------------------------------------------------| 
G|-----------------------------------------------------| 
D|---------12--------------------10----------12--------| 
A|-----10------10------10-----7----------10------------| 
D|-10--------------10------7---------10----------------| 
  ..only knew             ..how much 
E|-----------------------------------------------------| 
B|-----------------------------------------------------| 
G|-----------------------------------------------------|  X2 
D|-------7-----------------7b--------------------------| 
A|----5------5-----5----5------5-----5-----------------| 
D|-5------------5-----5-----------5--------------------| 

E|-----------------------------------------------------| 
B|-----------------------------------------------------| 
G|-----------------------------------------------------| 
D|---------12--------------------10----------12--------| 
A|-----10------10------10-----7----------10------------| 
D|-10--------------10------7---------10----------------| 

E|---------------------------------------------------| 
B|---------------------------------------------------| 
G|---------------------------------------------------| 
D|-------7-----------------7b------------------------| 
A|----5------5-----5----5----------------------------| 
D|-5------------5-----5-------------7/9b-------------| 

Pre-Chorus 
E|-----------------------------------------------------------| 
B|-----------------------------------------------------------| 
G|-----------------------------------------------------------| X2 
D|-2-2-2-2-2-0-0-0--12-12-12-12-12-12-12---------------------| 
A|-2-2-2-2-2-0-0-0--9--9--10-10-10-10-10---------------------| 
D|-2-2-2-2-2-0-0-0--9--9--10-10-10-10-10---------------------| 
   I wonder how you've.. 

E|-----------------------------------------------------------| 
B|-----------------------------------------------------------| 
G|-----------------------------------------------------------| 
D|-2-2-2-2-2-0-0-0--12-12-12-12-12-12-12-----10~~------------| 
A|-2-2-2-2-2-0-0-0--9--9--10-10-10-10-10-----10~~------------| 
D|-2-2-2-2-2-0-0-0--9--9--10-10-10-10-10-----10~~------------| 

Chorus 
E|-----------------------------------------------------------| 
B|-----------------------------------------------------------| 
G|-----------------------------------------------------------| 
D|-\2-22-4-5--5-555-5-5---2-22-4-5--5-555-5-5----------------| X2 
A|-\2-22-4-5--3-333-3-3---2-22-4-5--3-333-3-3----------------| 
D|-\2-22-4-5--5-555-5-5---2-22-4-5--5-555-5-5----------------| 
I can't be held.. 

BRIDGE - I haven't been able to work out the distorted part 
of the bridge, but here's the clean bit 
E|----------------------------------------------------------------| 
B|----------------------------------------------------------------| 
G|----------------------------------------------------------------| 
D|-12121012-121212-10/14141214-151515-12\1212912-121212-12/12~----| 
A|-10101010-101010-10/12121212-121212-12\9 9 9 9-9 9 9--9-/10~----| 
D|-10101010-101010-10/12121212-121212-12\9 9 9 9-9 9 9--9-/10~----| 

OUTRO - Work out your own strumming pattern 
E|--3-3-3-3------------------------------------------------------| 
B|--3-3-3-3------------------------------------------------------| 
G|--0-0-0-0------------------------------------------------------| 
D|--0-0-0-0------------------------------------------------------| 
A|--5-5-5-5------------------------------------------------------| 
D|--5-5-5-5------------------------------------------------------| 
    I memorised all the words for you... if you 

E|--0-0-0-0----0-0-0------------0-0-0-0-------3~-------------| 
B|--0-0-0-0----0-0-0------------0-0-0-0-------3~-------------| 
G|--7-7-7-7----5-5-5------------7-7-7-7-------0~-------------| 
D|--5-5-5-5----2-2-2------------5-5-5-5-------0~-------------| 
A|--3-3-3-3----0-0-0------------3-3-3-3-------5~-------------| 
D|--------------------------------------------5~-------------| 
  ..only knew.. how much that's just not like me.. 
  

top 5 | crossfade
top heavy metal
Outras músicas do artista letras do(a) Crossfade
1.
Cold
Top cifras »Top artistas »
Petaxxon Comunicação Online
Cifras.com.br - Melhor e mais completo site de cifras e tablaturas do Brasil
Mais de 1 milhão de acordes de músicas cadastradas desde 2003
As informações contidas no nosso site são colaborações de seus usuários e podem conter erros, sendo assim, não nos responsabilizamos sobre nenhuma destas.
close
menos
mais
close
Cor dos acordes:

Cor da letra:

 

save
close
close
 
redimensionar