Cifras e Tablaturas
CRX

CRX

Broken Bones

Cifras Cancelar Versão de Impressão

CRX - Broken Bones

Tom:

  			
Verse 
e|-----------------------------------------------------------------| 
B|-----------------------------------------------------------------| 
G|-----------------------------------------------------------------| 
D|-----------------------------------------------------------------| 
A|--------5--------------5--------------5--------------5-----5--3--| 
D|--0--3-----0-----0--3-----0-----0--3-----0-----0--3-----0--5--3--| 

Pre-Chorus 
Guitar 1 
e|--3-------6-----| 
B|--3-------6-----| 
G|--4-------7-----| 
D|--5-x6----8--x6-| 
A|----------------| 
D|----------------| 

Guitar 2 
e|---------------| 
B|---------------| 
G|---------------| 
D|--5---------8--| 
A|--5---------8--| 
D|--5-x6----8-x6-| 

Let this last chord ring out before Chorus 
e|--3--| 
B|--1--| 
G|--2--| 
D|--0--| 
A|--0--| 
D|--0--| 

Chorus 

Guitar 1 
e|-----------1-----------------3-----------------5-----------------3--------| 
B|--------1-----1-----------3-----3-----------6-----6-----------3-----3-----| 
G|-----2-----------2-----3-----------3-----7-----------7-----3-----------3--| 
D|--3-----------------5-----------------7-----------------5-----------------| 
A|--------------------------------------------------------------------------| 
D|--------------------------------------------------------------------------| x2 

Guitar 2 
e|--------------------------------------------------------------------------------------------| 
B|-------------10---------------------11--------------------10---------------------11---------| 
G|--10--7--10------10--7--12--10--12------12--9--10--7--10------10--7--12--10--12------12--9--| 
D|--------------------------------------------------------------------------------------------| 
A|--------------------------------------------------------------------------------------------| 
D|--------------------------------------------------------------------------------------------| x2 

Solo 
e|-(--------------------------------------------------)--------------------------------| 
B|-(--------------------------------------------------)--------------------------------| 
G|-(-12b---12b---12b---12--10-----9b---9b---9b---9--7-)-------7--5-----5---------------| 
D|-(--------------------------------------------------)-------------7-----7--5---------| 
A|-(--------------------------------------------------)-x2------------------------5----| 
D|-(--------------------------------------------------)--------------------------------| 

Last bar of PreChorus lead 
e|--------------3-----------------6-----10--| 
B|-----------3-----------------6--------10--| 
G|-----3-----------------7--------------10--| 
D|--5-----5--------5--8-----8--------8------| 
A|------------------------------------------| 
D|------------------------------------------| 





************************************ 

| x  Dead note 
| b  Bend 

************************************ 
    	
fixar
fixar inscrever-se

enviado porenviado por: renejunior
cifra enviadaCorrigida por: sem correções
logo top cifrasComente
ico música do artistaMúsicas deste artista
ico curtiuCurtiu?
ico destaqueDestaque
Petaxxon Comunicação Online

Cifras.com.br - Melhor e mais completo site de cifras e tablaturas do Brasil Mais de 1 milhão de acordes de músicas cadastradas desde 2003
As informações contidas no nosso site são colaborações de seus usuários e podem conter erros, sendo assim, não nos responsabilizamos sobre nenhuma destas.

close
menos
mais
close
Cor dos acordes:

Cor da letra:

close
Alinhar acordes a direita Alinhar acordes a esquerda Alinhar acordes em baixo Alinhar acordes no topo
close
  Mostrar todos os acordes Esconder acordes muito fáceis Esconder acordes fáceis Esconder acordes intermediários
redimensionar
glossário