Cifras e Tablaturas
Crywank

Crywank

Deep Down I'm American Werewolf

Cifras Cancelar Versão de Impressão
cifras

Crywank - Deep Down I'm American Werewolf

fixar na tela  
Exibindo: vídeo-aula ver clipes redimensionar

Tom:

  
Intro 

E |------------------------------------------------------------------------------| 
B |-14----14----14----14----14----14----14----14----14----14----14----14---0-----| 
G#|----12----------12----------12----------12----------12----------12--------0---| x2 
E |------------------------------------------------------------------------------| 
B |----------14----------14----------14----------------------------------------14| 
E |----------------------------------------------12----------12----------12------| 


Verse 

E |------------------------------------------------------------------------------| 
B |-14----14----14----14----14----14----14----14----14----14----14----14---0-----| 
G#|----12----------12----------12----------12----------12----------12--------0---| x10 
E |------------------------------------------------------------------------------| 
B |----------14----------14----------14----------------------------------------14| 
E |----------------------------------------------12----------12----------12------| 


Bridge 

E |------------------------------------------------------------------------------| 
B |----14----14----14----14----14----14------------------------------------------| 
G#|----12----12----12----12----12----12------------------------------------------| x1 
E |------------------------------------------------------------------------------| 
B |------------------------------------------------------------------------------| 
E |-12----12-----12----12----12----12--------------------------------------------| 


Chorus 

E |------------------------------------------------------------------------------| 
B |-0--0--0--------0--0--0---------0-0-0-0-0-0-----------------------------------| 
G#|-12-12-12-12\10-10-10-10-10\7-7-7-7-7-7-7-7-----------------------------------| x2 
E |------------------------------------------------------------------------------| 
B |-12-12-12-------10-10-10------7-7-7-7-7-7-7-----------------------------------| 
E |------------------------------------------------------------------------------| 

E |------------------------------------------------------------------------------| 
B |-0--0--0--0--0--0--0--0--0--0-0-0-0-0-0-0-0-----------------------------------| 
G#|-12-12-12-12\10-10-10-10-10\7-7-7-7-7-7-7-7-----------------------------------| x6 
E |------------------------------------------------------------------------------| 
B |-12-12-12-12\10-10-10-10-10\7-7-7-7-7-7-7-7-----------------------------------| 
E |------------------------------------------------------------------------------| 


Outro 

E |------------------------------------------------------------------------------| 
B |------------------------------------------------------------------------------| 
G#|---12---12---12---12-\-10---10---10---10-\-7---7---7---7---7---7---7----------| x1 
E |-0----0----0----0----0----0----0----0----0---0---0---0---0---0---0------------| 
B |------------------------------------------------------------------------------| 
E |------------------------------------------------------------------------------| 

E |------------------------------------------------------------------------------| 
B |---------------------------------------------------------------------------0--| 
G#|---12---12---12---12-\-10---10---10---10-\-7---7---7---7---7---7---7-------12-| x1 
E |-0----0----0----0----0----0----0----0----0---0---0---0---0---0---0---12h14-0--| 
B |------------------------------------------------------------------------------| 
E |------------------------------------------------------------------------------| 


************************************ 
| h   Hammer-on 
| /   Slide up 
| \   Slide down 
************************************ 
  

top 5 | crywank
top rock'n roll
Outras músicas do artista letras do(a) Crywank
Top cifras »Top artistas »
Petaxxon Comunicação Online
Cifras.com.br - Melhor e mais completo site de cifras e tablaturas do Brasil
Mais de 1 milhão de acordes de músicas cadastradas desde 2003
As informações contidas no nosso site são colaborações de seus usuários e podem conter erros, sendo assim, não nos responsabilizamos sobre nenhuma destas.
close
menos
mais
close
Cor dos acordes:

Cor da letra:

 

save
close
close
 
redimensionar