Cifras e Tablaturas
Crywolf

Crywolf

Eyes Half Closed

Cifras Cancelar Versão de Impressão
cifras

Crywolf - Eyes Half Closed

fixar na tela  
Exibindo: vídeo-aula ver clipes redimensionar

Tom:

  
Capo 3

Intro 
E|------------------------------------------------------------------| 
B|---------7-----7-----7-----7--------------3-----3-----0-----0-----| 
G|-------0---0-----0-----0-----0----------0---0-----0-----0-----0---| 
D|-----5-------5-----5-----5-----5------2-------2-----2-----2-----2-| 
A|---7--------------------------------3-----------------------------| 
E|------------------------------------------------------------------| 

E|--------3-----3-----0-----0---------------------------------------| 
B|------0---0-----0-----0-----0-----------5-----5-----5*------------| 
G|----0-------0-----0-----0-----0-------0---0-----0-----------------| 
D|------------------------------------4-------4-----4---------------| 
A|----------------------------------5-------------------------------| 
E|--3---------------------------------------------------------------| 

verse 1 
        You were the answer to my dreams 
E|------------------------------------------| 
B|---------5*--------------3*---------------| 
G|-------0---------------0------------------| 
D|-----5---------------0--------------------| 
A|---7--------------------------------------| 
E|-------------------3----------------------| 

          your scent in me so deep 
E|----------------------------------------------| 
B|--------3-----3-----3----------5---------7----| 
G|------0---0-----0-----0--------0-------0---0--| 
D|----2-------2-----2----------4-------5-------5| 
A|--3----------------------3/5-----5/7----------| 
E|----------------------------------------------| 

   I wanna tell you something 
E|---------------------------------------------------| 
B|-7---------10----0-------3-----3-----3-----3-------| 
G|---------0---0---------0---0-----0-----0-----0-----| 
D|-------9-------9-----2-------2-----2-----2-----2---| 
A|---7/10------------3-------------------------------| 
E|---------------------------------------------------| 

      Dressed in a stunning red 
E|------------------------------------------| 
B|---------5*--------------3*---------------| 
G|-------0---------------0------------------| 
D|-----5---------------0--------------------| 
A|---7--------------------------------------| 
E|-------------------3----------------------| 

         your head upon my chest 
E|----------------------------------------------| 
B|--------3-----3-----3----------5---------7----| 
G|------0---0-----0-----0--------0-------0---0--| 
D|----2-------2-----2----------4-------5-------5| 
A|--3----------------------3/5-----5/7----------| 
E|----------------------------------------------| 

   the pain inside means nothing 
E|---------------------------------------------------| 
B|-7---------10----0-------3-----3-----3-----3-------| 
G|---------0---0---------0---0-----0-----0-----0-----| 
D|-------9-------9-----2-------2-----2-----2-----2---| 
A|---7/10------------3-------------------------------| 
E|---------------------------------------------------| 

E|------------------------| 
B|---------5-----5-----5*-| 
G|-------0---0-----0------| 
D|-----4-------4-----4----| 
A|-3/5--------------------| 
E|------------------------| 

Bridge 
   Take off your shirt and lay down 
E|------------------------------------------------| 
B|---------3*-----------7*-----------5*-----------| 
G|-------0------------0------------0--------------| 
D|-----2------------5------------4----------------| 
A|-3------------7------------5--------------------| 
E|------------------------------------------------| 

right beside the pile of things we loved 
E|-------------------------------------------------| 
B|--------3-------3-------3-------------7----------| 
G|------0-------0-------0---0---------0------------| 
D|----2-------2-------2-------2-----5--------------| 
A|------------------3-------------7----------------| 
E|--3-------2--------------------------------------| 

 eyes half closed 
E|-----------------------------------------------| 
B|--------5-----5-----5-----5--------------------| 
G|------0---0-----0-----0------------------------| 
D|----4-------4-----4-----4----------------------| 
A|--5--------------------------------------------| 
E|-----------------------------------------------| 

 you were the answer that I had 
E|-------------------------------------------------| 
B|---------3*-----------7*-----------5*------------| 
G|-------0------------0------------0---------------| 
D|-----2------------5------------4-----------------| 
A|-3------------7------------5---------------------| 
E|-------------------------------------------------| 

but you're not all i wanted 
E|-------------------------------------------------| 
B|--------3-------3-------3-------------7----------| 
G|------0-------0-------0---0---------0------------| 
D|----2-------2-------2-------2-----5--------------| 
A|------------------3-------------7----------------| 
E|--3-------2--------------------------------------| 

you're not all i needed, so 
E|-----------------------------------------------| 
B|--------5-----5-----5-----5--------------------| 
G|------0---0-----0-----0------------------------| 
D|----4-------4-----4-----4----------------------| 
A|--5--------------------------------------------| 
E|-----------------------------------------------| 

Chorus 
   Take the spot in front of me, said 
E|------------------------------------------------| 
B|-------3-------3-------3-------3-------5-------5| 
G|-------0-------0-------0-------0-------0-------0| 
D|---2-------2-------2-------2-------4-------4----| 
A|-3---3---3---3---3---3---3---3---5---5---5---5--| 
E|------------------------------------------------| 

 listen now i'm coming clean 
E|------------------------------------------------| 
B|-------5-------5-------7--------7-------10------| 
G|-------0-------0-------0--------0-------0-------| 
D|---4-------4-------5--------5-------9-----------| 
A|-5---5---5---5---7---7----7---7---10--10--------| 
E|------------------------------------------------| 

there's so many things i think you should know 
E|------------------------------------------------| 
B|-------10-------3-------3-------3-------3-------| 
G|-------0--------0-------0-------0-------0-------| 
D|---9--------2-------2-------2-------2-----------| 
A|-10--10---3---3---3---3---3---3---3---3---------| 
E|------------------------------------------------| 

take apart all the melodies, and 
E|------------------------------------------------| 
B|-------3-------3-------3-------3-------5-------5| 
G|-------0-------0-------0-------0-------0-------0| 
D|---2-------2-------2-------2-------4-------4----| 
A|-3---3---3---3---3---3---3---3---5---5---5---5--| 
E|------------------------------------------------| 

 deconstruct what's inside of me 
E|------------------------------------------------| 
B|-------5-------5-------7--------7-------10------| 
G|-------0-------0-------0--------0-------0-------| 
D|---4-------4-------5--------5-------9-----------| 
A|-5---5---5---5---7---7----7---7---10--10--------| 
E|------------------------------------------------| 

you're what i wanna see before i go 
E|------------------------------------------------| 
B|-------10-------3-------3-------3-------3-------| 
G|-------0--------0-------0-------0-------0-------| 
D|---9--------2-------2-------2-------2-----------| 
A|-10--10---3---3---3---3---3---3---3---3---------| 
E|------------------------------------------------| 

Breakdown 
E|------------------------------------------------| 
B|--------3-0*--------7-0*--------5-0*------------| 
G|------0-----------0-----------0-----------------| 
D|----2-----------5-----------4-------------------| 
A|--3-----------7-----------5---------------------| 
E|------------------------------------------------| 

verse 2 
        You were the answer to my dreams 
E|------------------------------------------| 
B|---------5*--------------3*---------------| 
G|-------0---------------0------------------| 
D|-----5---------------0--------------------| 
A|---7--------------------------------------| 
E|-------------------3----------------------| 

          your scent in me so deep 
E|----------------------------------------------| 
B|--------3-----3-----3----------5---------7----| 
G|------0---0-----0-----0--------0-------0---0--| 
D|----2-------2-----2----------4-------5-------5| 
A|--3----------------------3/5-----5/7----------| 
E|----------------------------------------------| 

   I wanna tell you something 
E|---------------------------------------------------| 
B|-7---------10----0-------3-----3-----3-----3-------| 
G|---------0---0---------0---0-----0-----0-----0-----| 
D|-------9-------9-----2-------2-----2-----2-----2---| 
A|---7/10------------3-------------------------------| 
E|---------------------------------------------------| 

      Dressed in a stunning red 
E|------------------------------------------| 
B|---------5*--------------3*---------------| 
G|-------0---------------0------------------| 
D|-----5---------------0--------------------| 
A|---7--------------------------------------| 
E|-------------------3----------------------| 

         your head upon my chest 
E|----------------------------------------------| 
B|--------3-----3-----3----------5---------7----| 
G|------0---0-----0-----0--------0-------0---0--| 
D|----2-------2-----2----------4-------5-------5| 
A|--3----------------------3/5-----5/7----------| 
E|----------------------------------------------| 

   the pain inside means nothing 
E|---------------------------------------------------| 
B|-7---------10----0-------3-----3-----3-----3-------| 
G|---------0---0---------0---0-----0-----0-----0-----| 
D|-------9-------9-----2-------2-----2-----2-----2---| 
A|---7/10------------3-------------------------------| 
E|---------------------------------------------------| 

E|------------------------| 
B|---------5-----5-----5*-| 
G|-------0---0-----0------| 
D|-----4-------4-----4----| 
A|-3/5--------------------| 
E|------------------------| 

Bridge 
   Take off your shirt and lay down 
E|------------------------------------------------| 
B|---------3*-----------7*-----------5*-----------| 
G|-------0------------0------------0--------------| 
D|-----2------------5------------4----------------| 
A|-3------------7------------5--------------------| 
E|------------------------------------------------| 

right beside the pile of things we loved 
E|-------------------------------------------------| 
B|--------3-------3-------3-------------7----------| 
G|------0-------0-------0---0---------0------------| 
D|----2-------2-------2-------2-----5--------------| 
A|------------------3-------------7----------------| 
E|--3-------2--------------------------------------| 

 eyes half closed 
E|-----------------------------------------------| 
B|--------5-----5-----5-----5--------------------| 
G|------0---0-----0-----0------------------------| 
D|----4-------4-----4-----4----------------------| 
A|--5--------------------------------------------| 
E|-----------------------------------------------| 

 you were the answer that I had 
E|-------------------------------------------------| 
B|---------3*-----------7*-----------5*------------| 
G|-------0------------0------------0---------------| 
D|-----2------------5------------4-----------------| 
A|-3------------7------------5---------------------| 
E|-------------------------------------------------| 

but you're not all i wanted 
E|-------------------------------------------------| 
B|--------3-------3-------3-------------7----------| 
G|------0-------0-------0---0---------0------------| 
D|----2-------2-------2-------2-----5--------------| 
A|------------------3-------------7----------------| 
E|--3-------2--------------------------------------| 

you're not all i needed, so 
E|-----------------------------------------------| 
B|--------5-----5-----5-----5--------------------| 
G|------0---0-----0-----0------------------------| 
D|----4-------4-----4-----4----------------------| 
A|--5--------------------------------------------| 
E|-----------------------------------------------| 

Chorus 
   Take the spot in front of me, said 
E|------------------------------------------------| 
B|-------3-------3-------3-------3-------5-------5| 
G|-------0-------0-------0-------0-------0-------0| 
D|---2-------2-------2-------2-------4-------4----| 
A|-3---3---3---3---3---3---3---3---5---5---5---5--| 
E|------------------------------------------------| 

 listen now i'm coming clean 
E|------------------------------------------------| 
B|-------5-------5-------7--------7-------10------| 
G|-------0-------0-------0--------0-------0-------| 
D|---4-------4-------5--------5-------9-----------| 
A|-5---5---5---5---7---7----7---7---10--10--------| 
E|------------------------------------------------| 

there's so many things i think you should know 
E|------------------------------------------------| 
B|-------10-------3-------3-------3-------3-------| 
G|-------0--------0-------0-------0-------0-------| 
D|---9--------2-------2-------2-------2-----------| 
A|-10--10---3---3---3---3---3---3---3---3---------| 
E|------------------------------------------------| 

take apart all the melodies, and 
E|------------------------------------------------| 
B|-------3-------3-------3-------3-------5-------5| 
G|-------0-------0-------0-------0-------0-------0| 
D|---2-------2-------2-------2-------4-------4----| 
A|-3---3---3---3---3---3---3---3---5---5---5---5--| 
E|------------------------------------------------| 

 deconstruct what's inside of me 
E|------------------------------------------------| 
B|-------5-------5-------7--------7-------10------| 
G|-------0-------0-------0--------0-------0-------| 
D|---4-------4-------5--------5-------9-----------| 
A|-5---5---5---5---7---7----7---7---10--10--------| 
E|------------------------------------------------| 

you're what i wanna see before i go 
E|------------------------------------------------| 
B|-------10-------3-------3-------3-------3-------| 
G|-------0--------0-------0-------0-------0-------| 
D|---9--------2-------2-------2-------2-----------| 
A|-10--10---3---3---3---3---3---3---3---3---------| 
E|------------------------------------------------| 


*********************************** 

| /   Slide up 
| \   Slide down 
| *   Let ring 

*********************************** 
  

top 5 | crywolf
top rock'n roll
Outras músicas do artista letras do(a) Crywolf
Top cifras »Top artistas »
Petaxxon Comunicação Online
Cifras.com.br - Melhor e mais completo site de cifras e tablaturas do Brasil
Mais de 1 milhão de acordes de músicas cadastradas desde 2003
As informações contidas no nosso site são colaborações de seus usuários e podem conter erros, sendo assim, não nos responsabilizamos sobre nenhuma destas.
close
menos
mais
close
Cor dos acordes:

Cor da letra:

 

save
close
close
 
redimensionar