Cifras e Tablaturas
Cyndi Lauper

Cyndi Lauper

Time After Time Tablatura Verificada

Compositor : (Cyndi Lauper / R. Hyman)

Cifras Cancelar Versão de Impressão
cifras

Cyndi Lauper - Time After Time

fixar na tela  
Exibindo: vídeo-aula ver clipes redimensionar

Tom:

  
  

Capo 4  

Intro:  

e|-------------3p0--------------------2----------3p0---------------|  
B|-------------0------0---------------3----------0-----0------1--0-|  
G|---------5-------------5---------0----------5-----------0---2--0-|  
D|------5-----------------------4-----------5----------------------|  
A|---0------------------------------------0------------------------|  
E|---------------------------0--------------------------------1--3-|  

Tema:  

Parte 1:  

e|-----------------------------------------------------|  
B|---3------1------3-----1------3-----1-----3---5--4/5-|  
G|------0------0------0-----0------0-----0-------------|  
D|---3------2------3-----2------3-----2-----3---5--4/5-|  
A|-----------------------------------------------------|  
E|-----------------------------------------------------|  

e|-----------------------------------------------------|  
B|---3------1------3-----1------3-----1-----3---5--4/5-|  
G|------0------0------0-----0------0-----0-------------|  
D|---3------2------3-----2------3-----2-----3---5--4/5-|  
A|---3------3------3-----3------3-----3-----3----------|  
E|-----------------------------------------------------|  

Parte 2:  

e|-----------------------------------------------------------------|  
B|--------1-------3---------0------1-----------1--1----0-----------|  
G|-----2-------4----4-----0-----2-----2------2------2----0-------0-|  
D|--3-------5---------5-2-----3----------3-3------3-----------4----|  
A|---------------------------------------------------------2-------|  
E|-------------------------------------------------------0---------|  

e|----------------------------------------|  
B|--------1-----1------0------------------|  
G|--------2-----2------2-----0------0---2-|  
D|--------2-----3------3---------0------2-|  
A|----------------------------------------|  
E|-----1--------3------------0----------1-|  

e|-----------------------------------|  
B|-----1--1---0---1-----1--1---0---1-|  
G|-----2--2---2---0-----2--2---2---0-|  
D|-----3--3---3---2-----3--3---3---2-|  
A|----------------3----------------3-|  
E|--3----------------3---------------|  

Parte 3:  

e|-3--3--3-------3--3-3-3/5--0--------0---0------0-----------------|  
B|-3--3--3----3-----3-3-3/5--0----------------3------------------1-|  
G|-------0-0-----------------------2--------------------------0----|  
D|-------0-----------------------------------------------0h2-------|  
A|-------2----------0--------0------------------------3------------|  
E|-------3-----------------------1--------3------------------------| (2x)  

Parte Final:  

e|-----------------------------------------------------------------|  
B|-----------1--0--------------------------------------------------|  
G|--------0--------------0--2--0--------0--2--0h2--0---------------|  
D|-----0--------------0--------------0----------------3/2--0--2----|  
A|---------------------------------------------------------------3-|  
E|--1--------------3--------------0------------------------1-------|  





	  

  

top 5 | cyndi lauper
top pop music
Outras músicas do artista letras do(a) Cyndi Lauper
Top cifras »Top artistas »
Petaxxon Comunicação Online
Cifras.com.br - Melhor e mais completo site de cifras e tablaturas do Brasil
Mais de 1 milhão de acordes de músicas cadastradas desde 2003
As informações contidas no nosso site são colaborações de seus usuários e podem conter erros, sendo assim, não nos responsabilizamos sobre nenhuma destas.
close
menos
mais
close
Cor dos acordes:

Cor da letra:

 

save
close
close
 
redimensionar