Cifras e Tablaturas
Dagny

Dagny

Wearing Nothing

Cifras Cancelar Versão de Impressão
cifras

Dagny - Wearing Nothing

fixar na tela  
Exibindo: vídeo-aula ver clipes redimensionar
  Intro 

D|------------------------------------------------------------------------------| 
A|----7------8/-----12----5-------7------8-----12----5--------------------------| 
F|------------------------------------------------------------------------------| 
C|------------------------------------------------------------------------------| 
G|----5------7/-----10----3-------5------7-----10----3--------------------------| 
D|------------------------------------------------------------------------------| 


Verse1 

D|------------------------------------------------------------------------------| 
A|-----7------8/-----12----5-------7------8-----12----5-------------------------| 
F|------------------------------------------------------------------------------| 
C|------------------------------------------------------------------------------| 
G|-----5------7/-----10----3-------5------7-----10----3-------------------------| 
D|------------------------------------------------------------------------------| 

D|------------------------------------------------------------------------------| 
A|-----7------8/-----12----5-------7------8-----12----5-------------------------| 
F|------------------------------------------------------------------------------| 
C|------------------------------------------------------------------------------| 
G|-----5------7/-----10----3-------5------7-----10----3-------------------------| 
D|------------------------------------------------------------------------------| 

Pre-Chorus and Chorus 

D|---------------------------------------------------------------------------| 
A|-------7---7-------8----8---12----5---5-----4p5-4--------------------------| 
F|---------------------------------------------------------------------------| 
C|---------------------------------------------------------------------------| 
G|----5--------5---7---7------10----3------3--3------------------------------| 
D|---------------------------------------------------------------------------| 

D|---------------------------------------------------------------------------| 
A|-------7---7-------8----8---12----5---5-----4p5-4--------------------------| 
F|---------------------------------------------------------------------------| 
C|---------------------------------------------------------------------------| 
G|----5--------5---7---7------10----3------3--3------------------------------| 
D|---------------------------------------------------------------------------| 

D|---------------------------------------------------------------------------| 
A|-------7---7-------8----8---12----5---5-----4p5-4--------------------------| 
F|---------------------------------------------------------------------------| 
C|---------------------------------------------------------------------------| 
G|----5--------5---7---7------10----3------3--3------------------------------| 
D|---------------------------------------------------------------------------| 

D|-----------------------------------------------------------------------------| 
A|-----7------8-----12----5-------7------8-----12----5-------------------------| 
F|-----------------------------------------------------------------------------| 
C|-----------------------------------------------------------------------------| 
G|-----5------7-----10----3-------5------7-----10----3-------------------------| 
D|-----------------------------------------------------------------------------| 

Vers 2 

D|---------------------------------------------------------------------------| 
A|---------------------------------------------------------------------------| 
F|---------------------------------------------------------------------------| 
C|---------------------------------------------------------------------------| 
G|---3--3----3-3---5----5--7/---10------3--3----3-3---5----5--7/---10--------| 
D|---------------------------------------------------------------------------| 

D|---------------------------------------------------------------------------| 
A|---------------------------------------------------------------------------| 
F|---------------------------------------------------------------------------| 
C|---------------------------------------------------------------------------| 
G|---3--3----3-3---5----5--7/---10------3--3----3-3---5----5--7/---10--------| 
D|---------------------------------------------------------------------------| 

(Chorus 2 and to the end) 

  D | E7 | C 



************************************ 

| /  Slide up 
| p  Pull-off 

************************************ 
  

cifra enviadasem correções
enviado porenviada por:aleffederico
top 5 | dagny
top rock'n roll
Outras músicas do artista letras do(a) Dagny
Top cifras »Top artistas »
Petaxxon Comunicação Online
Cifras.com.br - Melhor e mais completo site de cifras e tablaturas do Brasil
Mais de 1 milhão de acordes de músicas cadastradas desde 2003
As informações contidas no nosso site são colaborações de seus usuários e podem conter erros, sendo assim, não nos responsabilizamos sobre nenhuma destas.
close
menos
mais
close
Cor dos acordes:

Cor da letra:

 

save
close
close
 
redimensionar