Cifras e Tablaturas
Dan Owen

Dan Owen

Moonlight

Cifras Cancelar Versão de Impressão
cifras

Dan Owen - Moonlight

fixar na tela  
Exibindo: vídeo-aula ver clipes redimensionar

Tom:

  
Intro 
E|-----0------0--------1------1--------0----------------0------0----| 
B|----1-1----1-1------3-3----3-3------1-1-----1--1-----1-1----1-1---| 
G|---0---0--0---0----2---2--2---2----2---2---2--2-----2---2--2---2--| 
D|------------------0------0----------------------------------------| 
A|--3------3------------------------0-------0-----------------------| 
E|---------------------------------------------3-----1------1-------| 

verse 1 
E|-----0------0--------1------1--------0----------------0------0----| 
B|----1-1----1-1------3-3----3-3------1-1-----1--1-----1-1----1-1---| 
G|---0---0--0---0----2---2--2---2----2---2---2--2-----2---2--2---2--| (x2) 
D|------------------0------0----------------------------------------| 
A|--3------3------------------------0-------0-----------------------| 
E|---------------------------------------------3-----1------1-------| 

Chorus 
E|-----0------0--------1------1--------0----------------0------0----| 
B|----1-1----1-1------3-3----3-3------1-1-----1--1-----1-1----1-1---| 
G|---0---0--0---0----2---2--2---2----2---2---2--2-----2---2--2---2--| (x2) 
D|------------------0------0----------------------------------------| 
A|--3------3------------------------0-------0-----------------------| 
E|---------------------------------------------3-----1------1-------| 

verse 2 
E|-----0------0--------1------1--------0----------------0------0----| 
B|----1-1----1-1------3-3----3-3------1-1-----1--1-----1-1----1-1---| 
G|---0---0--0---0----2---2--2---2----2---2---2--2-----2---2--2---2--| (x2) 
D|------------------0------0----------------------------------------| 
A|--3------3------------------------0-------0-----------------------| 
E|---------------------------------------------3-----1------1-------| 

Chorus 
E|-----0------0--------1------1--------0----------------0------0----| 
B|----1-1----1-1------3-3----3-3------1-1-----1--1-----1-1----1-1---| 
G|---0---0--0---0----2---2--2---2----2---2---2--2-----2---2--2---2--| (x2) 
D|------------------0------0----------------------------------------| 
A|--3------3------------------------0-------0-----------------------| 
E|---------------------------------------------3-----1------1-------| 

Bridge 
E|-----0----------------0------0----| 
B|----1-1-----1--1-----1-1----1-1---| 
G|---2---2---2--2-----2---2--2---2--| (x4) 
D|----------------------------------| 
A|--0-------0-----------------------| 
E|-------------3-----1------1-------| 

E|-----0----------------0------0----| 
B|----1-1-----1--1-----1-1----1-1---| 
G|---2---2---2--2-----2---2--2---2--| (x2) 
D|----------------------------------| 
A|--0-------0-----------------------| 
E|-------------3-----1------1-------| 

Chorus 
E|-----0------0--------1------1--------0----------------0------0---|      |-0-| 
B|----1-1----1-1------3-3----3-3------1-1-----1--1-----1-1----1-1--|      |-1-| 
G|---0---0--0---0----2---2--2---2----2---2---2--2-----2---2--2---2-| (x2) |-0-| 
D|------------------0------0---------------------------------------|      |-2-| 
A|--3------3------------------------0-------0----------------------|      |-3-| 
E|---------------------------------------------3-----1------1------|      |-3-| 
  

top 5 | dan owen
top rock'n roll
Outras músicas do artista letras do(a) Dan Owen
Top cifras »Top artistas »
Petaxxon Comunicação Online
Cifras.com.br - Melhor e mais completo site de cifras e tablaturas do Brasil
Mais de 1 milhão de acordes de músicas cadastradas desde 2003
As informações contidas no nosso site são colaborações de seus usuários e podem conter erros, sendo assim, não nos responsabilizamos sobre nenhuma destas.
close
menos
mais
close
Cor dos acordes:

Cor da letra:

 

save
close
close
 
redimensionar