Cifras e Tablaturas
Dan Owen

Dan Owen

Riding Out This Storm

Cifras Cancelar Versão de Impressão
cifras

Dan Owen - Riding Out This Storm

fixar na tela  
Exibindo: vídeo-aula ver clipes redimensionar

Tom:

  
Intro 
E|------------------------| 
B|----3-----------3-------| 
G|----0-----------0-------|  (x2) 
D|----0--(x8)-----0--(x8)-| 
A|--2-----------3---------| 
E|--0---------------------| 

verse 1 
E|------------------------|      |-------------------------------------| 
B|----3-----------3-------|      |----1-----------3------------3-------| 
G|----0-----------0-------| (x4) |----2-----------0------------0-------| 
D|----0--(x8)-----0--(x8)-|      |----2--(x4)-----0--(x4)------0--(x8)-| 
A|--2-----------3---------|      |--0-----------------------3----------| 
E|--0---------------------|      |--------------3----------------------| 

Chorus 
E|------------------------------------------------| 
B|----3-----------3----------3-----------3--------| 
G|----0-----------2----------0-----------0--------|  (x4) 
D|----0--(x4)---0---(x4)-----0--(x4)-----0--(x4)--| 
A|-------------------------2-----------3----------| 
E|--3----------------------0----------------------| 

verse 2 
E|------------------------|      |-------------------------------------| 
B|----3-----------3-------|      |----1-----------3------------3-------| 
G|----0-----------0-------| (x4) |----2-----------0------------0-------| 
D|----0--(x8)-----0--(x8)-|      |----2--(x4)-----0--(x4)------0--(x8)-| 
A|--2-----------3---------|      |--0-----------------------3----------| 
E|--0---------------------|      |--------------3----------------------| 

Chorus 
E|------------------------------------------------| 
B|----3-----------3----------3-----------3--------| 
G|----0-----------2----------0-----------0--------|  (x4) 
D|----0--(x4)---0---(x4)-----0--(x4)-----0--(x4)--| 
A|-------------------------2-----------3----------| 
E|--3----------------------0----------------------| 

Bridge 
E|--------------------------------------------|---------------------------------| 
B|----1----------3----------3----------3------|----1----------3----------3------| 
G|----2----------0----------0----------2------|----2----------0----------2------| 
D|----2-(x4)-----0-(x4)-----0-(x4)---0---(x4)-|----2-(x4)-----0-(x4)---0---(x8)-| 
A|--0----------3------------------------------|--0----------3-------------------| 
E|------------------------3-------------------|---------------------------------| 

Chorus 
E|-----------------------------------------------|      |-------| 
B|----3-----------3----------3-----------3-------|      |--3----| 
G|----0-----------2----------0-----------0-------| (x4) |--0----| 
D|----0--(x4)---0---(x4)-----0--(x4)-----0--(x4)-|      |--0----| 
A|-------------------------2-----------3---------|      |-------| 
E|--3----------------------0---------------------|      |--3----| 
  

top 5 | dan owen
top rock'n roll
Outras músicas do artista letras do(a) Dan Owen
Top cifras »Top artistas »
Petaxxon Comunicação Online
Cifras.com.br - Melhor e mais completo site de cifras e tablaturas do Brasil
Mais de 1 milhão de acordes de músicas cadastradas desde 2003
As informações contidas no nosso site são colaborações de seus usuários e podem conter erros, sendo assim, não nos responsabilizamos sobre nenhuma destas.
close
menos
mais
close
Cor dos acordes:

Cor da letra:

 

save
close
close
 
redimensionar