Cifras e Tablaturas
Dance Gavin Dance

Dance Gavin Dance

Stroke God Millionaire

Cifras Cancelar Versão de Impressão
cifras

Dance Gavin Dance - Stroke God Millionaire

fixar na tela  
Exibindo: vídeo-aula ver clipes redimensionar
  
Intro 0:00-0:15 

GUITAR 1 

     T      T     T        T           T      T     T        T 
e|----------------------------------|---------------------------------| 
B|--14p2h4-11p2h4-9p4p2h4-11p4p2h4--|--6p2---11p2h4-9p4p2h4-11p4p2h4--| 
G|----------------------------------|-----h3--------------------------| 
D|----------------------------------|---------------------------------| 
A|----------------------------------|---------------------------------| 
D|----------------------------------|---------------------------------| 

                                                                  |--FAST-FILL--| 
     T      T     T        T           T      T     T        T        T 
e|----------------------------------|-----------------------------|-------------| 
B|--14p2h4-11p2h4-9p4p2h4-11p4p2h4--|--6p2---11p2h4-9p4p2h4-11p4--|--11p4p2h4---| 
G|----------------------------------|-----h3----------------------|-------------| 
D|----------------------------------|-----------------------------|-------------| 
A|----------------------------------|-----------------------------|-------------| 
D|----------------------------------|-----------------------------|-------------| 

GUITAR 2 

Lots of random hammer/pull-off fills from GUITAR 1's parts but at twice the tempo. 
It' quite hard to figure out exactly what >_<; 

Verse 0:16-0:40  

GUITAR 1 

Identical to the intro (without the 'fast fill') but played at twice the tempo 

     T      T     T        T           T      T     T        T 
e|----------------------------------|---------------------------------| 
B|--14p2h4-11p2h4-9p4p2h4-11p4p2h4--|--6p2---11p2h4-9p4p2h4-11p4p2h4--| 
G|----------------------------------|-----h3--------------------------|  PLAY 8 TIMES! 
D|----------------------------------|---------------------------------|   
A|----------------------------------|---------------------------------| 
D|----------------------------------|---------------------------------| 

GUITAR 2 

e|--------------------------| 
B|--------------------------| 
G|-------------3-3----------|  PLAY 8 TIMES! 
D|-1-1-1---1---1-1---6-6-6--|   
A|-1-1-1---1---1-1---6-6-6--| 
D|-1-1-1---1---------6-6-6--| 

Chorus 0:41-0:55                       

GUITAR 1 

e|----------------------------------------------| 
B|----------------------------------------------| 
G|-15---15-15-15-\-13-/-15-/-18---15---15-15-15-| 
D|-13---13-13-13-\-11-/-13-/-16---13---13-13-13-| 
A|-13---13-13-13-\-11-/-13-/-16---13---13-13-13-| 
D|----------------------------------------------| 

e|-----------------------------------16-18-------16-18----| 
B|-----------------------------------------16----------16-| 
G|-15---15-15-15-\-13-/-15-/-18---15----------15----------| 
D|-13---13-13-13-\-11-/-13-/-16---13----------15----------| 
A|-13---13-13-13-\-11-/-13-/-16---13----------13----------| 
D|--------------------------------------------------------| 

e|----------------------------------------------| 
B|----------------------------------------------| 
G|-15---15-15-15-\-13-/-15-/-18---15---15-15-15-| 
D|-13---13-13-13-\-11-/-13-/-16---13---13-13-13-| 
A|-13---13-13-13-\-11-/-13-/-16---13---13-13-13-| 
D|----------------------------------------------| 

e|-----------------------------------16-18-------16-18-------16-18------------------| 
B|-----------------------------------------16----------16----------16---16-18-14----| 
G|-15---15-15-15-\-13-/-15-/-18---15----------15----------15---------------------15-| 
D|-13---13-13-13-\-11-/-13-/-16---13----------15----------15------------------------| 
A|-13---13-13-13-\-11-/-13-/-16---13----------13----------13------------------------| 
D|----------------------------------------------------------------------------------| 

GUITAR 2 

 |---- ring out ----|  
e|------------------|-16-16-18-18-------16-16-18-18-------| 
B|------------------|-------------14-14-------------14-14-| 
G|-15~--20~--15~~---|-------------------------------------| 
D|-13~--18~--13~~---|-------------------------------------| 
A|-13~--18~--13~~---|-------------------------------------| 
D|------------------|-------------------------------------| 

 |---ring out---|  
e|--------------|----16-18--------16-18----| 
B|--------------|----------16-----------16-| 
G|-15~--15~--18~|-15-----------15----------| 
D|-13~--13~--16~|-13-----------13----------| 
A|-13~--13~--16~|-13-----------13----------| 
D|--------------|--------------------------| 

 |---- ring out ----|  
e|------------------|-16-16-18-18-------16-16-18-18-------| 
B|------------------|-------------14-14-------------14-14-| 
G|-15~--20~--15~~---|-------------------------------------| 
D|-13~--18~--13~~---|-------------------------------------| 
A|-13~--18~--13~~---|-------------------------------------| 
D|------------------|-------------------------------------| 

 |---ring out---|  
e|--------------|----16-18--------16-18--------16-18------------------| 
B|--------------|----------16-----------16-----------16---16-18-14----| 
G|-15~--15~--18~|-15-----------15-----------15---------------------15-| 
D|-13~--13~--16~|-13-----------13-----------13------------------------| 
A|-13~--13~--16~|-13-----------13-----------13------------------------| 
D|--------------|-----------------------------------------------------| 

Interlude 0:56-1:02 

GUITAR 1 

Let them all ring out! 
   
e|-------------------------------------------------------------------------------------| 
B|-11--------------------------9--------------------------7----------------------------| 
G|-10--------------------------6--------------------------4----------------------------| 
D|--8--------------------------6--------------------------4----------------------------| 
A|--9--------------------------8--------------------------6----------------------------| 
D|-------------------------------------------------------------------------------------| 

GUITAR 2 
   
e|-------------------------------------------------------------------------------------| 
B|----14-14-14-11-11-11----------18-18-18-14-14-14----------21-21-21-19-19-19-21-21-21-| 
G|----------------------13-13-13-------------------15-15-15----------------------------| 
D|-------------------------------------------------------------------------------------| 
A|-------------------------------------------------------------------------------------| 
D|-------------------------------------------------------------------------------------| 

Second verse 1:03-1:15 
- Play the same riffs from the first verse on both guitars. Repeat each riff four times. 

Second Chorus + funky breakdown 1:16-1:57 

GUITAR 1 

e|----------------------------------------------| 
B|----------------------------------------------| 
G|-15---15-15-15-\-13-/-15-/-18---15---15-15-15-| 
D|-13---13-13-13-\-11-/-13-/-16---13---13-13-13-| 
A|-13---13-13-13-\-11-/-13-/-16---13---13-13-13-| 
D|----------------------------------------------| 

e|-----------------------------------16-18-------16-18----| 
B|-----------------------------------------16----------16-| 
G|-15---15-15-15-\-13-/-15-/-18---15----------15----------| 
D|-13---13-13-13-\-11-/-13-/-16---13----------15----------| 
A|-13---13-13-13-\-11-/-13-/-16---13----------13----------| 
D|--------------------------------------------------------| 

e|----------------------------------------------| 
B|----------------------------------------------| 
G|-15---15-15-15-\-13-/-15-/-18---15---15-15-15-| 
D|-13---13-13-13-\-11-/-13-/-16---13---13-13-13-| 
A|-13---13-13-13-\-11-/-13-/-16---13---13-13-13-| 
D|----------------------------------------------| 

e|-----------------------------------16-18-------16-18--------| 
B|-----------------------------------------16----------16-----| 
G|-15---15-15-15-\-13-/-15-/-18---15----------15----------15--| 
D|-13---13-13-13-\-11-/-13-/-16---13----------15----------15--| 
A|-13---13-13-13-\-11-/-13-/-16---13----------13----------13--| 
D|------------------------------------------------------------| 

e|------16-18-------16-18-------16-18-------------------|    -| 
B|------------16----------16----------16---16-18-14-----|     | 
G|---15----------15----------15---------------------15--|     | 
D|---13----------15----------15-------------------------|     | 
A|---13----------13----------13-------------------------|     | 
D|------------------------------------------------------|     | 
                                                              | Repeat four times! 
e|------16-18-------16-18-------16-18------|------------|     | 
B|------------16----------16----------16---|---pause----|     | 
G|---15----------15----------15------------|------------|     | 
D|---13----------15----------15------------|-drum-fill--|     | 
A|---13----------13----------13------------|------------|     | 
D|-----------------------------------------|------------|    -| 

e|------16-18-------16-18-------16-18-------------------| 
B|------------16----------16----------16---16-18-14-----| 
G|---15----------15----------15---------------------15--| 
D|---13----------15----------15-------------------------| 
A|---13----------13----------13-------------------------| 
D|------------------------------------------------------| 

Solo and Tilian melody 1:58-2:37 
- Work in progress! 

Second interlude 2:38-2:49 
- Play the first interlude riffs twice. 

Outro 2:50-3:10 
- This is a short combination of previous riffs - see below! 

GUITAR 1 

     T      T     T        T          
e|----------------------------------| 
B|--14p2h4-11p2h4-9p4p2h4-11p4p2h4--| 
G|----------------------------------| 
D|----------------------------------| 
A|----------------------------------| 
D|----------------------------------| 

e|----------------------------------------------| 
B|----------------------------------------------| 
G|-15---15-15-15-\-13-/-15-/-18---15---15-15-15-| 
D|-13---13-13-13-\-11-/-13-/-16---13---13-13-13-| 
A|-13---13-13-13-\-11-/-13-/-16---13---13-13-13-| 
D|----------------------------------------------| 

e|-----------------------------------16-18-------16-18----| 
B|-----------------------------------------16----------16-| 
G|-15---15-15-15-\-13-/-15-/-18---15----------15----------| 
D|-13---13-13-13-\-11-/-13-/-16---13----------15----------| 
A|-13---13-13-13-\-11-/-13-/-16---13----------13----------| 
D|--------------------------------------------------------| 

e|----------------------------------------------| 
B|----------------------------------------------| 
G|-15---15-15-15-\-13-/-15-/-18---15---15-15-15-| 
D|-13---13-13-13-\-11-/-13-/-16---13---13-13-13-| 
A|-13---13-13-13-\-11-/-13-/-16---13---13-13-13-| 
D|----------------------------------------------| 

e|-----------------------------------16-18-------16-18-------16-18------------------| 
B|-----------------------------------------16----------16----------16---16-18-14----| 
G|-15---15-15-15-\-13-/-15-/-18---15----------15----------15---------------------15-| 
D|-13---13-13-13-\-11-/-13-/-16---13----------15----------15------------------------| 
A|-13---13-13-13-\-11-/-13-/-16---13----------13----------13------------------------| 
D|----------------------------------------------------------------------------------| 

GUITAR 2 

e|--------------------------| 
B|--------------------------| 
G|-------------3-3----------|  
D|-1-1-1---1---1-1---6-6-6--|   
A|-1-1-1---1---1-1---6-6-6--| 
D|-1-1-1---1---------6-6-6--| 

 |---- ring out ----|  
e|------------------|-16-16-18-18-------16-16-18-18-------| 
B|------------------|-------------14-14-------------14-14-| 
G|-15~--20~--15~~---|-------------------------------------| 
D|-13~--18~--13~~---|-------------------------------------| 
A|-13~--18~--13~~---|-------------------------------------| 
D|------------------|-------------------------------------| 

 |---ring out---|  
e|--------------|----16-18--------16-18----| 
B|--------------|----------16-----------16-| 
G|-15~--15~--18~|-15-----------15----------| 
D|-13~--13~--16~|-13-----------13----------| 
A|-13~--13~--16~|-13-----------13----------| 
D|--------------|--------------------------| 

 |---- ring out ----|  
e|------------------|-16-16-18-18-------16-16-18-18-------| 
B|------------------|-------------14-14-------------14-14-| 
G|-15~--20~--15~~---|-------------------------------------| 
D|-13~--18~--13~~---|-------------------------------------| 
A|-13~--18~--13~~---|-------------------------------------| 
D|------------------|-------------------------------------| 

 |---ring out---|  
e|--------------|----16-18--------16-18--------16-18------------------| 
B|--------------|----------16-----------16-----------16---16-18-14----| 
G|-15~--15~--18~|-15-----------15-----------15---------------------15-| 
D|-13~--13~--16~|-13-----------13-----------13------------------------| 
A|-13~--13~--16~|-13-----------13-----------13------------------------| 
D|--------------|-----------------------------------------------------| 
 
  

top 5 | dance gavin dance
top rock alternativo
Outras músicas do artista letras do(a) Dance Gavin Dance
Top cifras »Top artistas »
Petaxxon Comunicação Online
Cifras.com.br - Melhor e mais completo site de cifras e tablaturas do Brasil
Mais de 1 milhão de acordes de músicas cadastradas desde 2003
As informações contidas no nosso site são colaborações de seus usuários e podem conter erros, sendo assim, não nos responsabilizamos sobre nenhuma destas.
close
menos
mais
close
Cor dos acordes:

Cor da letra:

 

save
close
close
 
redimensionar