Cifras e Tablaturas
Dance Gavin Dance

Dance Gavin Dance

Summertime Gladness

Cifras Cancelar Versão de Impressão
cifras

Dance Gavin Dance - Summertime Gladness

fixar na tela  
Exibindo: vídeo-aula ver clipes redimensionar
  
Intro 
Guitar 1: 
E||--------------------------------------16-16------------------------------16-16------| 
B||--11-11-x-x-11-11-x-x-11-11-11-11-x-x-x--x--x-x-11-11---11-x-x-11-11-x-x-x--x--x-x--| 
G||--10-10-x-x-10-10-x-x-10-10-10-10-x-x-13-13-x-x-10-10---10-x-x-10-10-x-x-13-13-x-x--| 
D||--x--x--x-x-x--x--x-x-x--x--x--x--x-x-------x-x-x--x----x--x-x-x--x--x-x-------x-x--| 
A||--9--9--x-x-9--9--x-x-9--9--9--9--x-x-------x-x-9--9----9--x-x-9--9--x-x-------x-x--| 
E||------------------------------------------------------------------------------------| 


E||--------------------------------------16-16-----------------------13---------13-----| 
B||--13-13-x-x-13-13-x-x-13-13-13-13-x-x-x--x--x-x-13-13---13-x-x-13----14-16----------| 
G||--13-13-x-x-13-13-x-x-13-13-13-13-x-x-13-13-x-x-13-13---13-x-x-13---------------15--| 
D||--x--x--x-x-x--x--x-x-x--x--x--x--x-x-------x-x-x--x----x--x-x-x--------------------| x2 
A||--11-11-x-x-11-11-x-x-11-11-11-11-x-x-------x-x-11-11---11-x-x-11-------------------| 
E||------------------------------------------------------------------------------------| 



Pre-Verse 
Guitar 1: 
E||--------------------------------------16-16------------------------------16-16------| 
B||--11-11-x-x-11-11-x-x-11-11-11-11-x-x-x--x--x-x-11-11---11-x-x-11-11-x-x-x--x--x-x--| 
G||--10-10-x-x-10-10-x-x-10-10-10-10-x-x-13-13-x-x-10-10---10-x-x-10-10-x-x-13-13-x-x--| 
D||--x--x--x-x-x--x--x-x-x--x--x--x--x-x-------x-x-x--x----x--x-x-x--x--x-x-------x-x--| 
A||--9--9--x-x-9--9--x-x-9--9--9--9--x-x-------x-x-9--9----9--x-x-9--9--x-x-------x-x--| 
E||------------------------------------------------------------------------------------| 


E||--------------------------------------16-16-----------------------13---------13-----| 
B||--13-13-x-x-13-13-x-x-13-13-13-13-x-x-x--x--x-x-13-13---13-x-x-13----14-16----------| 
G||--13-13-x-x-13-13-x-x-13-13-13-13-x-x-13-13-x-x-13-13---13-x-x-13---------------15--| 
D||--x--x--x-x-x--x--x-x-x--x--x--x--x-x-------x-x-x--x----x--x-x-x--------------------| x2 
A||--11-11-x-x-11-11-x-x-11-11-11-11-x-x-------x-x-11-11---11-x-x-11-------------------| 
E||------------------------------------------------------------------------------------| 


Guitar 2: 
E||--------16-16-------20-16---16----20------16----------20-16---------16------16-20-16--| 
B||--------------18-18------------16------16----------16---------18-16------18-----------| 
G||--15-15-----------------------------------------18------------------------------------| 
D||--------------------------------------------------------------------------------------| 
A||--------------------------------------------------------------------------------------| 
E||--------------------------------------------------------------------------------------| 


E||--------16-16-------20-16---16----20------16-16-------20-16---------16------16-20-----| 
B||--------------18-18------------16------16----------16---------18-16------18-----------| 
G||--15-15-----------------------------------------18------------------------------------| 
D||--------------------------------------------------------------------------------------| x2 
A||--------------------------------------------------------------------------------------| 
E||--------------------------------------------------------------------------------------| 



Verse 
Guitar 1: 
E||------------6-6-6-6-----------------------------------| 
B||------------6-6-6-6-----------------------------------| 
G||--------x-x-6-6-6-6-----------------------------------| 
D||--8-8-6-x-x-------------6-8-10----6------------6------| 
A||--------x-x----------------------------8---6-8---8-6--| 
E||------------------------------------------------------| 


E||------------6-6-6-6-----------------------------------| 
B||------------6-6-6-6-----------------------------------| 
G||--------x-x-6-6-6-6-----------------------------------| 
D||--8-8-6-x-x-------------6-8-10----6-------------------| x2 
A||--------x-x----------------------------8---6---6h8----| 
E||------------------------------------------------------| 


Guitar 2: 
E||------------------------------------------------------| 
B||------------------------------------------------------| 
G||--6--6p5--5----------------5--------------------------| 
D||---------------8--8p6----6----8--------6--8--8p6------| 
A||-----------------------------------8-8-----------6h8--| 
E||------------------------------------------------------| 
                                      . . 

E||--6-----6------6--------------------------------------| 
B||-----9----6-------9-----------------------------------| 
G||-------------------------5---------------8--6---------| 
D||---------------------6-6----8----------6--------------| 
A||-----------------------------------8-8----------------| 
E||------------------------------------------------------| 
                                      . . 



Pre-Chorus 
Guitar 1: 
E||---------------------------------------------| 
B||--------14--------------------13---------14--| 
G||--------13--------------------13---------13--| 
D||-----------15---13---11----10---------11-----| x3 
A||-----13-----------------11-------13----------| 
E||--14-----------------------------------------| 


E||---------------------------------------------| 
B||--------14--------------------13-------------| 
G||--------13--------------------13-------------| 
D||-----------15---13---11----10----------------| 
A||-----13-----------------11-------13----------| 
E||--14-----------------------------------------| 


Guitar 2: 
E||--18-18-18-18-18-18-18-18-20-20-20-21-21-21-21-21--| 
B||--18-18-18-18-18-18-18-18-18-18-18-18-18-18-18-18--| 
G||---------------------------------------------------| 
D||---------------------------------------------------| 
A||---------------------------------------------------| 
E||---------------------------------------------------| 


E||--18-18-18-18-18-18-18-18-20-20-20-21~-------------| 
B||--18-18-18-18-18-18-18-18-18-18-18-18~-------------| 
G||---------------------------------------------------| 
D||---------------------------------------------------| 
A||---------------------------------------------------| 
E||---------------------------------------------------| 



Chorus 
Guitar 1: 
E||--16-16-16-14---13----------16b18r16------21b23r21--| 
B||--------------------14------------------------------| 
G||----------------------------------------------------| 
D||----------------------------------------------------| x4 
A||----------------------------------------------------| 
E||----------------------------------------------------| 


Guitar 2: 
E||----------------------------------------------------------| 
B||--11-11-11-11----11-11-11-11------13-13-13------14-14-14--| 
G||--10-10-10-10----10-10-10-10------13-13-13------13-13-13--| 
D||--x--x--x--x-----x--x--x--x-------x--x--x-------x--x--x---| x4 
A||--9--9--9--9-----9--9--9--9-------11-11-11------13-13-13--| 
E||----------------------------------------------------------| 



Guitar 1: 
E||---------------------8--9------------------------------| 
B||---------9--11------------9--------------------9/11\9--| 
G||--/10----------10--------------11--10-10---------------| 
D||--------------------------------------------11---------| 
A||-------------------------------------------------------| 
E||-------------------------------------------------------| 


E||-----------------------------------------------------------------| 
B||--------9--11-------------------------------------9--9--11-------| 
G||--10----------10------------8------8------10-----------------10--| 
D||--------------------11-8-11-----11-----11------11----------------| x2 
A||-----------------------------------------------------------------| 
E||-----------------------------------------------------------------| 


Guitar 2: 
E||------------------------------------------------------| 
B||------------------------------------------------------| 
G||--8/10----8--6-6------6--8--8/10----8--6-6------6--8--| 
D||--------------------8-------------------------8-------| 
A||------------------------------------------------------| 
E||------------------------------------------------------| 


E||------------------------------------------------------| 
B||------------------------------------------------------| 
G||--8/10----8--6-6------6--8-------------6--6--6--6h8---| 
D||--------------------8-------10----6--8----------------| x2 
A||------------------------------------------------------| 
E||------------------------------------------------------| 



Pre-Verse 
Guitar 1: 
E||--------------------------------------16-16------------------------------16-16------| 
B||--11-11-x-x-11-11-x-x-11-11-11-11-x-x-x--x--x-x-11-11---11-x-x-11-11-x-x-x--x--x-x--| 
G||--10-10-x-x-10-10-x-x-10-10-10-10-x-x-13-13-x-x-10-10---10-x-x-10-10-x-x-13-13-x-x--| 
D||--x--x--x-x-x--x--x-x-x--x--x--x--x-x-------x-x-x--x----x--x-x-x--x--x-x-------x-x--| 
A||--9--9--x-x-9--9--x-x-9--9--9--9--x-x-------x-x-9--9----9--x-x-9--9--x-x-------x-x--| 
E||------------------------------------------------------------------------------------| 


E||--------------------------------------16-16-----------------------13---------13-----| 
B||--13-13-x-x-13-13-x-x-13-13-13-13-x-x-x--x--x-x-13-13---13-x-x-13----14-16----------| 
G||--13-13-x-x-13-13-x-x-13-13-13-13-x-x-13-13-x-x-13-13---13-x-x-13---------------15--| 
D||--x--x--x-x-x--x--x-x-x--x--x--x--x-x-------x-x-x--x----x--x-x-x--------------------| x2 
A||--11-11-x-x-11-11-x-x-11-11-11-11-x-x-------x-x-11-11---11-x-x-11-------------------| 
E||------------------------------------------------------------------------------------| 


Guitar 2: 
E||---------------------------------------------------------| 
B||--------11--9--11-9---------------11--9--11-9---------9--| 
G||--10-------------------10----8-------------------10------| 
D||---------------------------------------------------------| 
A||---------------------------------------------------------| 
E||---------------------------------------------------------| 


E||---------------------------------------------------------| 
B||--------11--9--11-9--------------------------------------| 
G||-----------------------10----8---------------------------| 
D||--11----------------------------------11--10----11-------| 
A||---------------------------------------------------------| 
E||---------------------------------------------------------| 



Verse 
Guitar 1: 
E||------------6-6-6-6-----------------------------------| 
B||------------6-6-6-6-----------------------------------| 
G||--------x-x-6-6-6-6-----------------------------------| 
D||--8-8-6-x-x-------------6-8-10----6------------6------| 
A||--------x-x----------------------------8---6-8---8-6--| 
E||------------------------------------------------------| 


E||------------6-6-6-6-----------------------------------| 
B||------------6-6-6-6-----------------------------------| 
G||--------x-x-6-6-6-6-----------------------------------| 
D||--8-8-6-x-x-------------6-8-10----6-------------------| x2 
A||--------x-x----------------------------8---6---6h8----| 
E||------------------------------------------------------| 


Guitar 2: 
E||------------------------------------------------------| 
B||------------------------------------------------------| 
G||--6--6p5--5----------------5--------------------------| 
D||---------------8--8p6----6----8--------6--8--8p6------| 
A||-----------------------------------8-8-----------6h8--| 
E||------------------------------------------------------| 
                                      . . 

E||--6-----6------6--------------------------------------| 
B||-----9----6-------9-----------------------------------| 
G||-------------------------5---------------8--6---------| 
D||---------------------6-6----8----------6--------------| 
A||-----------------------------------8-8----------------| 
E||------------------------------------------------------| 
                                      . . 



Pre-Chorus 
Guitar 1: 
E||---------------------------------------------| 
B||--------14--------------------13---------14--| 
G||--------13--------------------13---------13--| 
D||-----------15---13---11----10---------11-----| x3 
A||-----13-----------------11-------13----------| 
E||--14-----------------------------------------| 


E||---------------------------------------------| 
B||--------14--------------------13-------------| 
G||--------13--------------------13-------------| 
D||-----------15---13---11----10----------------| 
A||-----13-----------------11-------13----------| 
E||--14-----------------------------------------| 


Guitar 2: 
E||--18-18-18-18-18-18-18-18-20-20-20-21-21-21-21-21--| 
B||--18-18-18-18-18-18-18-18-18-18-18-18-18-18-18-18--| 
G||---------------------------------------------------| 
D||---------------------------------------------------| 
A||---------------------------------------------------| 
E||---------------------------------------------------| 


E||--18-18-18-18-18-18-18-18-20-20-20-21~-------------| 
B||--18-18-18-18-18-18-18-18-18-18-18-18~-------------| 
G||---------------------------------------------------| 
D||---------------------------------------------------| 
A||---------------------------------------------------| 
E||---------------------------------------------------| 



Chorus / Outro 
Guitar 1: 
E||--16-16-16-14---13----------16b18r16------21b23r21--| 
B||--------------------14------------------------------| 
G||----------------------------------------------------| 
D||----------------------------------------------------| x4 
A||----------------------------------------------------| 
E||----------------------------------------------------| 


Guitar 2: 
E||----------------------------------------------------------| 
B||--11-11-11-11----11-11-11-11------13-13-13------14-14-14--| 
G||--10-10-10-10----10-10-10-10------13-13-13------13-13-13--| 
D||--x--x--x--x-----x--x--x--x-------x--x--x-------x--x--x---| x4 
A||--9--9--9--9-----9--9--9--9-------11-11-11------13-13-13--| 
E||----------------------------------------------------------| 



Guitar 1: 
E||---------------------8--9------------------------------| 
B||---------9--11------------9--------------------9/11\9--| 
G||--/10----------10--------------11--10-10---------------| 
D||--------------------------------------------11---------| 
A||-------------------------------------------------------| 
E||-------------------------------------------------------| 


E||-----------------------------------------------------------------| 
B||--------9--11-------------------------------------9--9--11-------| 
G||--10----------10------------8------8------10-----------------10--| 
D||--------------------11-8-11-----11-----11------11----------------| x4 
A||-----------------------------------------------------------------| 
E||-----------------------------------------------------------------| 


Guitar 2: 
E||------------------------------------------------------| 
B||------------------------------------------------------| 
G||--8/10----8--6-6------6--8--8/10----8--6-6------6--8--| 
D||--------------------8-------------------------8-------| 
A||------------------------------------------------------| 
E||------------------------------------------------------| 


E||------------------------------------------------------| 
B||------------------------------------------------------| 
G||--8/10----8--6-6------6--8-------------6--6--6--6h8---| 
D||--------------------8-------10----6--8----------------| x4 
A||------------------------------------------------------| 
E||------------------------------------------------------| 



Guitar 1: 
E||-------| 
B||-------| 
G||--10~--| 
D||--11~--| 
A||--9~---| 
E||-------| 


Guitar 2: 
E||-------| 
B||-------| 
G||--6~---| 
D||-------| 
A||-------| 
E||-------|  
  

top 5 | dance gavin dance
top rock alternativo
Outras músicas do artista letras do(a) Dance Gavin Dance
Top cifras »Top artistas »
Petaxxon Comunicação Online
Cifras.com.br - Melhor e mais completo site de cifras e tablaturas do Brasil
Mais de 1 milhão de acordes de músicas cadastradas desde 2003
As informações contidas no nosso site são colaborações de seus usuários e podem conter erros, sendo assim, não nos responsabilizamos sobre nenhuma destas.
close
menos
mais
close
Cor dos acordes:

Cor da letra:

 

save
close
close
 
redimensionar