Cifras e Tablaturas
Dance Gavin Dance

Dance Gavin Dance

Young Robot

Cifras Cancelar Versão de Impressão
cifras

Dance Gavin Dance - Young Robot

fixar na tela  
Exibindo: vídeo-aula ver clipes redimensionar

Tom:

  
E|--------0--0--3--0-----0--7--0--|-------| 
B|-----6--1--1--1--0--6--1--5--0--|-------| 
G|-----5--0--0--0--0--5--0--5--0--|---4---| 
D|-----3--3--2--2--2--3--3--7--2--|---5---| 
A|-----5--0--0--0--3--5--0-----3--|---7---| 
E|--------------------------------|---0---|x2 
                                

E|---------------------------------------------------------------------|-----------------| 
B|---------------------------------------------------------------------|-----------------| 
G|---------------------------------------------------------------------|-----------------| 
D|-----------------------------------2p0--------------/5-2-------------|-----------------| 
A|--/5----------3p0--------------3h5------------/5-3----------3-5-7--3-|-3-5-7--3-5-7-3--| 
E|---------3/5-------5p0--1---------------3/5--------------------------|-----------------|x4 

Second time through has the altered ending 


E|-5-5-5-5------5-5-5-5--5----------------------5-5-5-5------5-5-5-5--5-|---------5-----|--------------------| 
B|-5-5-5-5------5-5-5-5--5---12-12-8-8----------5-5-5-5------5-5-5-5--5-|-----8p0--5----|-----------8p5-6p5--| 
G|-5-5-5-5-9----5-5-5-5--5-------------9-9-7-7--5-5-5-5-9----5-5-5-5--5-|---5-------5---|---4-5-4-4----------| 
D|-7-7-7-7---7~-7-7-7-7--7----------------------7-7-7-7---7~-7-7-7-7--7-|-7----------7--|--5-----------------| 
A|----------------------------------------------------------------------|---------------|--------------------| 
E|----------------------------------------------------------------------|---------------|--------------------| 

First playthrough end with the weird little sweep, 2nd 3rd and 4th, end with the second lick 


E|-----------------------------------------------------------| 
B|---------------------------10--------------------------10--| 
G|----9-9--12/9--9--9--12/9------9--9--12/9--9--9--12/9------| 
D|----7-7--------7--7------------7--7--------7--7------------| 
A|-----------------------------------------------------------| 
E|-----------------------------------------------------------|x4 


E|--------15---------12--------------------------------------15p12--------------------------------| 
B|--10h13------10h13------12h13p12h13p12------------12h13h15-------12h13p12----12h13p12-----------| 
G|---------------------------------------14---12h14-------------------------14----------14--------| 
D|------------------------------------------------------------------------------------------------| 
A|------------------------------------------------------------------------------------------------| 
E|------------------------------------------------------------------------------------------------|x4 


E|---------------------------------------------------------------------------------| 
B|-----------------------------------8-10-8-----------------------------------10---| 
G|-9-9-7-9-7-9-----5-7---9-9-7-9-7-9--------9-10-9-9-7-9-7-9----5---9-9-7-9-7------| 
D|-------------5-7------------------------------------------------------------7----| 
A|---------------------------------------------------------------------------------| 
E|---------------------------------------------------------------------------------|x2 


E|--------15---------12--------------------------------------15p12--------------------------------| 
B|--10h13------10h13------12h13p12h13p12------------12h13h15-------12h13p12----12h13p12-----------| 
G|---------------------------------------14---12h14-------------------------14----------14--------| 
D|------------------------------------------------------------------------------------------------| 
A|------------------------------------------------------------------------------------------------| 
E|------------------------------------------------------------------------------------------------|x4 


E|---------------------------------------------------------------------------------| 
B|-----------------------------------8-10-8-----------------------------------10---| 
G|-9-9-7-9-7-9-----5-7---9-9-7-9-7-9--------9-10-9-9-7-9-7-9----5---9-9-7-9-7------| 
D|-------------5-7------------------------------------------------------------7----| 
A|---------------------------------------------------------------------------------| 
E|---------------------------------------------------------------------------------|x2 



E|-15-15--15-15--15-15--15-15--15-15--15-15--15-15--13-13--12-12-12-12-12--12--12--------------------------| 
B|------------------------------------------------------------------------------------8--------------------| 
G|-12-12--12-12--12-12--12-12--12-12--12-12--12-12--10-10--9--9--9--9--9---9---9--5h7---5/7~~-5---5/7-5~~--| 
D|---------------------------------------------------------------------------------------------------------| 
A|---------------------------------------------------------------------------------------------------------| 
E|---------------------------------------------------------------------------------------------------------|x2 



E|---------------------------------------------------------------------|-----------------| 
B|---------------------------------------------------------------------|-----------------| 
G|---------------------------------------------------------------------|-----------------| 
D|-----------------------------------2p0--------------/5-2-------------|-----------------| 
A|--/5----------3p0--------------3h5------------/5-3----------3-5-7--3-|-3-5-7--3-5-7-3--| 
E|---------3/5-------5p0--1---------------3/5--------------------------|-----------------|x4(Same as Intro) 


Fin 


************************************ 

| h   Hammer-on 
| p   Pull-off 
| /   Slide up 
| \   Slide down 
| ~   Vibrato 

************************************ 
  

top 5 | dance gavin dance
top rock alternativo
Outras músicas do artista letras do(a) Dance Gavin Dance
Top cifras »Top artistas »
Petaxxon Comunicação Online
Cifras.com.br - Melhor e mais completo site de cifras e tablaturas do Brasil
Mais de 1 milhão de acordes de músicas cadastradas desde 2003
As informações contidas no nosso site são colaborações de seus usuários e podem conter erros, sendo assim, não nos responsabilizamos sobre nenhuma destas.
close
menos
mais
close
Cor dos acordes:

Cor da letra:

 

save
close
close
 
redimensionar