Cifras e Tablaturas
Daniel Miranda

Daniel Miranda

Greensleeves Tablatura Verificada

Cifras Cancelar Versão de Impressão
cifras

Daniel Miranda - Greensleeves

fixar na tela  
Exibindo: vídeo-aula ver clipes redimensionar

Tom:

  

e|--------------------1p0----------------------------------------|  
B|-------1--3-----1-------3--0-------0----1----------------------|  
G|------2--------0--------------0--2-----2-----------------------|               
D|-2---2--------2-----------------------2------------------------|  
A|----0-----2--3-----------------------0-------------------------|  
E|------------------------3-----0--------------------------------|  



e|---------------------------------------------------------------|  
B|---------------------------------------------------------------|  
G|-2--2--1h2--0--1-----------------------------------------------|              
D|------------------2--------------------------------------------|  
A|---------------------------------------------------------------|  
E|----1-------0--------------------------------------------------|  




e|--------------------1p0----------------------------------------|  
B|-------1--3-----1-------3--0-------0----1-------------0--------|  
G|------2--------0--------------0--2-----2---2--2--1h2-----1-----|              
D|-2---2--------2-----------------------2---------------------2--|  
A|----0-----2--3-----------------------0-------------------------|  
E|------------------------3-----0---------------1-------0--------|  



e|-3--------3-----2h0--------------------------------------------|  
B|-------1-------------3--0--------0--1-------------0------------|  
G|----0--------0----------------2--------2--2--1p2-----1---------|               
D|---------------------------0----------------------------2------|  
A|-3----------------------------------0--------------------------|  
E|----------3----------3-----3--------------1-------0-----0------|  


e|-3--------3-----2--0h2-----------------------------------------|  
B|-------1----------------3----0--------0--1----1----------------|  
G|----0--------0---------------------2-------------2---1h2h1-----|           
D|--------------------------------0---------------------------4-1|  
A|-3-------------------------0-------------0--2------------------|  
E|----------3-------------3-------3--------------------0---------|  




e|---------------------------------------------------------------|  
B|----------2h3-------2------------------------------------------|  
G|-2-----2----------2--------------------------------------------|              
D|----2----------------------------------------------------------|  
A|-0-------------0-----------------------------------------------|  
E|---------------------------------------------------------------|  



e|---------------0---------hn12---5~-----------------------------|  
B|------------1--------------------------------------------------|  
G|---------2-----------------------------------------------------|               
D|------2-----------hn7------------------------------------------|  
A|-0h3-----------------------------------------------------------|  
E|---------------------------------------------------------------|  


Escalas  

e|------------------------------0--1--3/5-----5~-----------------|  
B|---------------------0--1--3-----------------------------------|  
G|---------------0--2--------------------------------------------|               
D|---------0--2--------------------------------------------------|  
A|-0h2--3--------------------------------------------------------|  
E|-----------------------------------------0---------------------|  


e|------0-------------------------------0--1--3/5--5-------------|  
B|-----1-----------------------0--1--3-------------5-------------|  
G|----2------------------0--2----------------------5-------------|              
D|---------------0h2--3------------------------------------------|  
A|-0-------2--3--------------------------------------------------|  
E|-------------------------------------------------0-------------|  



e|-------------------------------------0--1/4----4-----5---------|  
B|----1-----1-----------------0--1--3-----------------5----------|  
G|----------------------1--2-------------------------5-----------|              
D|----------------0--2-------------------------------------------|  
A|-0-----2-----3-----------0------------------0----0-------------|  
E|---------------------------------------------------------------|  

  

top 5 | daniel miranda
top música clássica
Outras músicas do artista letras do(a) Daniel Miranda
Top cifras »Top artistas »
Petaxxon Comunicação Online
Cifras.com.br - Melhor e mais completo site de cifras e tablaturas do Brasil
Mais de 1 milhão de acordes de músicas cadastradas desde 2003
As informações contidas no nosso site são colaborações de seus usuários e podem conter erros, sendo assim, não nos responsabilizamos sobre nenhuma destas.
close
menos
mais
close
Cor dos acordes:

Cor da letra:

 

save
close
close
 
redimensionar