Cifras e Tablaturas
Daniel Rossen

Daniel Rossen

Silent Song

Cifras Cancelar Versão de Impressão
cifras

Daniel Rossen - Silent Song

fixar na tela  
Exibindo: vídeo-aula ver clipes redimensionar
  
INTRO 
E|--0---0---1---0-|--5-5-5-5-5-5-5-| 
B|--2---2---0---3-|--3-3-3-3-3-3-3-| 
G|--2---2---2---0-|--0-0-0-0-0-0-0-| 
D|--2---2---3---2-|--4-4-4-4-4-4-4-| 
A|0---------------|--0-0-0-0-0-0-0-| 
D|----5---3---2---|0---------------| 

VERSE(no singing yet) 
E|--7-7-7---7-7---|--7-7-7---7-7---|--7-------6-4h6-|--1---1---1---1---1---1-| 
B|--0-0-0---0-0---|--0-0-0---0-0---|--0-------5-5-5-|--0---0---0---0---0---0-| 
G|--7-7-7---7-7---|--7-7-7---7-7---|--7-------6-6-6-|--2---2---2---2---2---2-| 
D|--0-0-0---0-0---|--0-0-0---0-0---|--0--0-5--------|--3---3---3---3---3---3-| x2 
A|----------------|----------------|----5-7---------|---0h3-----0h3-----0h3--| 
D|5-------4-----0-|5-------4-----0-|5-------4-------|3-------3-------3-------| 

Chorus(no singing yet)      LINKY BIT: 
E|--0---0---1---1-|--0---0-|    |--5-5-5-5-5-5-5-| 
B|--2---2---0---0-|--3---3-|    |--3-3-3-3-3-3-3-| 
G|--2---2---2---2-|--0---0-|    |--0-0-0-0-0-0-0-| 
D|--2---2---3---3-|--2---2-| x4 |--4-4-4-4-4-4-4-| 
A|0----------0h3--|---0h2--|    |--0-0-0-0-0-0-0-| 
D|----5---3-------|2-------|    |0---------------| 

verse 1 
E|--7-7-7---7-7-7-|--7-7-7---7-7-7-|--7-7-7---6-6-6-|--1---1---1---1-|--1---1-| 
B|--0-0-0---0-0-0-|--0-0-0---0-0-0-|--0-0-0---5-5-5-|--0---0---0---0-|--0---0-| 
G|--7-7-7---7-7-7-|--7-7-7---7-7-7-|--7-7-7---6-6-6-|--2---2---2---2-|--2---2-| 
D|--0-0-0---0-0-0-|--0-0-0---0-0-0-|--0-0-0---4-4-4-|--3---3---3---3-|--3---3-| x2 
A|----------------|----------------|----------------|---0h3-----0h3--|---0h3--| 
D|5-------4-------|5-------4-------|5-------4-------|3-------3-------|3-------| 

Chorus 1                       LINKY BIT: 
E|--0---0---1---1-|--0---0-|    |--5-5-5-5-5-5-5-| 
B|--2---2---0---0-|--3---3-|    |--3-3-3-3-3-3-3-| 
G|--2---2---2---2-|--0---0-|    |--0-0-0-0-0-0-0-| 
D|--2---2---3---3-|--2---2-| x4 |--4-4-4-4-4-4-4-| 
A|0----------0h3--|---0h2--|    |--0-0-0-0-0-0-0-| 
D|----5---3-------|2-------|    |0---------------| 

verse 2 
E|--7-7-7---7-7-7-|--7-7-7---7-7-7-|--7-7-7---6-6-6-|--1---1---1---1-|--1---1-| 
B|--0-0-0---0-0-0-|--0-0-0---0-0-0-|--0-0-0---5-5-5-|--0---0---0---0-|--0---0-| 
G|--7-7-7---7-7-7-|--7-7-7---7-7-7-|--7-7-7---6-6-6-|--2---2---2---2-|--2---2-| 
D|--0-0-0---0-0-0-|--0-0-0---0-0-0-|--0-0-0---4-4-4-|--3---3---3---3-|--3---3-| x2 
A|----------------|----------------|----------------|---0h3-----0h3--|---0h3--| 
D|5-------4-------|5-------4-------|5-------4-------|3-------3-------|3-------| 

Chorus 2 
E|--0---0---1---1-|--0---0-| 
B|--2---2---0---0-|--3---3-| 
G|--2---2---2---2-|--0---0-| 
D|--2---2---3---3-|--2---2-| x4 
A|0----------0h3--|---0h2--| 
D|----5---3-------|2-------| 

BRIDGE(t=10) 
E|--8-8-8-8-8-8-8-|--8-8-8-8-8-8-8-8|--6---6---6---6-|--1---1---0-----| 
B|--t-t-t-t-t-t-t-|--8-8-8-8-8-8-8-8|--8---8---8---8-|--0---0---3-----| 
G|--t-t-t-t-t-t-t-|--9-9-9-9-9-9-9-9|--7---7---7---7-|--2---2---0-----| 
D|--0-0-0-0-0-0-0-|--0-0-0-0-0-0-0-0|8-------8-------|0---------3---0-| 
A|--0-------------|--0-0-0-0-0-0-0-0|----8-------8---|----3---1---13--| 
D|0---------------|0----------------|----------------|----------------| 
                                            optional little run up^ (1-3-0, not "13") 
                                LINKY BIT 
E|--3p0-0---1---1-|--1---1-|    |--5-5-5-5-5-5-5-| 
B|--2---2---0---0-|--0---0-|    |--3-3-3-3-3-3-3-| 
G|--2---2---2---2-|--2---2-|    |--0-0-0-0-0-0-0-| 
D|--2---2---3---3-|--3---3-| x3 |--4-4-4-4-4-4-4-| 
A|0----------0h3--|---0h3--|    |--0-0-0-0-0-0-0-| 
D|----5---3-------|3-------|    |0---------------| 

verse 3 
E|--7-7-7---7-7-7-|--7-7-7---7-7-7-|--7-7-7---6-6-6-|--1---1---1---1-|--1---1-| 
B|--0-0-0---0-0-0-|--0-0-0---0-0-0-|--0-0-0---5-5-5-|--0---0---0---0-|--0---0-| 
G|--7-7-7---7-7-7-|--7-7-7---7-7-7-|--7-7-7---6-6-6-|--2---2---2---2-|--2---2-| 
D|--0-0-0---0-0-0-|--0-0-0---0-0-0-|--0-0-0---4-4-4-|--3---3---3---3-|--3---3-| x2 
A|----------------|----------------|----------------|---0h3-----0h3--|---0h3--| 
D|5-------4-------|5-------4-------|5-------4-------|3-------3-------|3-------| 

Chorus 3 
E|--0---0---1---1-|--0---0-| 
B|--2---2---0---0-|--3---3-| 
G|--2---2---2---2-|--0---0-| 
D|--2---2---3---3-|--2---2-| x8 
A|0----------0h3--|---0h2--| 
D|----5---3-------|2-------| 

*********************************** 

| h   Hammer-on 
| p   Pull-off 

*********************************** 
  

top 5 | daniel rossen
top rock'n roll
Outras músicas do artista letras do(a) Daniel Rossen
Top cifras »Top artistas »
Petaxxon Comunicação Online
Cifras.com.br - Melhor e mais completo site de cifras e tablaturas do Brasil
Mais de 1 milhão de acordes de músicas cadastradas desde 2003
As informações contidas no nosso site são colaborações de seus usuários e podem conter erros, sendo assim, não nos responsabilizamos sobre nenhuma destas.
close
menos
mais
close
Cor dos acordes:

Cor da letra:

 

save
close
close
 
redimensionar