Cifras e Tablaturas
Cifras Cancelar Versão de Impressão
cifras

Daniela Andrade - Creep

fixar na tela  
Exibindo: vídeo-aula ver clipes redimensionar

Tom:

  
Intro/Verse/Chorus/Bridge/Outro 
e|--3--x--3--x-------------------------------------------------------------------| 
B|--3--4--1--1-------------------------------------------------------------------| 
G|--0--4--0--0-------------------------------------------------------------------| 
D|--0--4--2--1-------------------------------------------------------------------| 
A|--2--2--3--3-------------------------------------------------------------------| 
E|--3--x--x--x-------------------------------------------------------------------| 

Fill 
e|--3-----3--x--3--x-------------------------------------------------------------| 
B|--3-----3--4--1--1-------------------------------------------------------------| 
G|--0-----0--4--0--0-------------------------------------------------------------| 
D|--0-----0--4--2--1-------------------------------------------------------------| 
A|--2-3p2-2--2--3--3-------------------------------------------------------------| 
E|--3-----3--x--x--x-------------------------------------------------------------| 

| x   Dead note 
| p   Pull-off  
  

top 5 | daniela andrade
top rock'n roll
Outras músicas do artista letras do(a) Daniela Andrade
Top cifras »Top artistas »
Petaxxon Comunicação Online
Cifras.com.br - Melhor e mais completo site de cifras e tablaturas do Brasil
Mais de 1 milhão de acordes de músicas cadastradas desde 2003
As informações contidas no nosso site são colaborações de seus usuários e podem conter erros, sendo assim, não nos responsabilizamos sobre nenhuma destas.
close
menos
mais
close
Cor dos acordes:

Cor da letra:

 

save
close
close
 
redimensionar