Cifras e Tablaturas
Darkthrone

Darkthrone

Blasphemer

Cifras Cancelar Versão de Impressão
cifras

Darkthrone - Blasphemer

fixar na tela  
Exibindo: vídeo-aula ver clipes redimensionar
  
e|-----------------|------------------|-----------------|------------------| 
B|-----------------|------------------|-----------------|------------------| 
G|-----------------|------------------|-----------------|------------------| 
D|-----------------|------------------|-----------------|------------------| (x 2) 
A|------------7tr8-|------------5\6-6-|------------7tr8-|------------7/6-6-| 
E|-0-0--0-0-0------|-0-0--0-0-0-3\4-4-|-0-0--0-0-0------|-0-0--0-0-0-5/4-4-| 
   . .  . . .        . .  . . .         . .  . . .        . .  . . .  


Riff 2 
e|-------------------------------------------------------| 
B|-------------------------------------------------------| 
G|-------------------------------------------------------| 
D|-------------------------------------------------------| 
A|-------------------------------------------------3-3-5-| 
E|-2-2-2-2-2-2-2-2-2-2-2-2-2-2-2-2-2-2-2-2-2-2-2-2-1-1-3-| 
   . . . . . . . . . . . . . . . . . . . . . . . . 

e|---------------------------------------------------| 
B|---------------------------------------------------| 
G|---------------------------------------------------| 
D|---------------------------------5p4---------------| 
A|-------------------------------------4-4-3tr4------| 
E|-2-2-2-2-2-2-2-2-2-2-2-2-2-2-2-2--------------1tr2-| 
   . . . . . . . . . . . . . . . .  

e|-------------------------------------------------------| 
B|-------------------------------------------------------| 
G|-------------------------------------------------------| 
D|-------------------------------------------------------| 
A|-------------------------------------------------3-3-5-| 
E|-2-2-2-2-2-2-2-2-2-2-2-2-2-2-2-2-2-2-2-2-2-2-2-2-1-1-3-| 
   . . . . . . . . . . . . . . . . . . . . . . . . 

e|---------------------------------------------| 
B|---------------------------------------------| 
G|---------------------------------------------| 
D|---------------------------------------------| (x 2) 
A|---------------------------------4-4--4--4-4-| 
E|-2-2-2-2-2-2-2-2-2-2-2-2-2-2-2-2-2-2--2--2-2-| 
   . . . . . . . . . . . . . . . .  

Riff 3 
e|--------------------------------------------------| 
B|--------------------------------------------------| 
G|--------------------------------------------------| 
D|----------------------------------------------2h3-| 
A|------------3\4p(0)-------3\4p(0)--------1h2------| 
E|-1-1--1-1-1---------1-1-1---------1-1-1-----------| 

e|--------------------------------------------------| 
B|--------------------------------------------------| 
G|--------------------------------------------------| 
D|--------------------------------------------------| (x 4) 
A|------------3\4p(0)-------1-1-1-1-1-1-1-1-1-------| 
E|-1-1--1-1-1---------1-1-1-------------------0-0-0-| 


Riff 1 
e|-----------------|------------------|-----------------|------------------| 
B|-----------------|------------------|-----------------|------------------| 
G|-----------------|------------------|-----------------|------------------| 
D|-----------------|------------------|-----------------|------------------| (x 2) 
A|------------7tr8-|------------5\6-6-|------------7tr8-|------------7/6-6-| 
E|-0-0--0-0-0------|-0-0--0-0-0-3\4-4-|-0-0--0-0-0------|-0-0--0-0-0-5/4-4-| 
   . .  . . .        . .  . . .         . .  . . .        . .  . . .  

Riff 2 
e|-------------------------------------------------------| 
B|-------------------------------------------------------| 
G|-------------------------------------------------------| 
D|-------------------------------------------------------| 
A|-------------------------------------------------3-3-5-| 
E|-2-2-2-2-2-2-2-2-2-2-2-2-2-2-2-2-2-2-2-2-2-2-2-2-1-1-3-| 
   . . . . . . . . . . . . . . . . . . . . . . . . 

e|---------------------------------------------------| 
B|---------------------------------------------------| 
G|---------------------------------------------------| 
D|---------------------------------5p4---------------| 
A|-------------------------------------4-4-3tr4------| 
E|-2-2-2-2-2-2-2-2-2-2-2-2-2-2-2-2--------------1tr2-| 
   . . . . . . . . . . . . . . . .  

e|-------------------------------------------------------| 
B|-------------------------------------------------------| 
G|-------------------------------------------------------| 
D|-------------------------------------------------------| 
A|-------------------------------------------------3-3-5-| 
E|-2-2-2-2-2-2-2-2-2-2-2-2-2-2-2-2-2-2-2-2-2-2-2-2-1-1-3-| 
   . . . . . . . . . . . . . . . . . . . . . . . . 

e|---------------------------------------------| 
B|---------------------------------------------| 
G|---------------------------------------------| 
D|---------------------------------------------| (x 2) 
A|---------------------------------4-4--4--4-4-| 
E|-2-2-2-2-2-2-2-2-2-2-2-2-2-2-2-2-2-2--2--2-2-| 
   . . . . . . . . . . . . . . . .  

Riff 3 
e|--------------------------------------------------| 
B|--------------------------------------------------| 
G|--------------------------------------------------| 
D|----------------------------------------------2h3-| 
A|------------3\4p(0)-------3\4p(0)--------1h2------| 
E|-1-1--1-1-1---------1-1-1---------1-1-1-----------| 

e|--------------------------------------------------| 
B|--------------------------------------------------| 
G|--------------------------------------------------| 
D|--------------------------------------------------| (x 4) 
A|------------3\4p(0)-------1-1-1-1-1-1-1-1-1-------| 
E|-1-1--1-1-1---------1-1-1-------------------0-0-0-| 


Riff 4 
e|------------------------|-----------------------|-----------------------|------------------------| 
B|------------------------|-----------------------|-----------------------|------------------------| 
G|------------------------|-----------------------|-----------------------|------------------------| 
D|-------------7p6--------|-----------------------|------------7p6--------|------------------------| (x 4) 
A|-----------------8-7tr8-|-------------7\6-8-8-8-|----------------8-7tr8-|-------------8/7-7------| 
E|-0-0-0-0-0-0------------|-0-0-0-0-0-0-5\6-6-6-6-|-0-0-0-0-0-0-----------|-0-0-0-0-0-0-6/5-5-4tr5-| 
   . . . . . .              . . . . . . .           . . . . . .             . . . . . .  

Riff 5 
e|---------------------|-----------------------|---------------------|-----------------------| 
B|---------------------|-----------------------|---------------------|-----------------------| 
G|---------------------|-----------------------|---------------------|-----------------------| 
D|---------------------|-----------------------|---------------------|-----------------------| 
A|-6-------------------|-6/5-------------------|-6-------------------|-6/5-5-5-5-5-5-5-5-5-5-| 
E|-4-0-0-0-0-0-0-0-0-0-|-4/3-0-0-0-0-0-0-0-0-0-|-4-0-0-0-0-0-0-0-0-0-|-4/3-3-3-3-3-3-3-3-3-3-| 
     . . . . . . . . .       . . . . . . . . .     . . . . . . . . .       . . . . . . . . .  

e|--------------|-----------------------|---------------------|-----------------------| 
B|--------------|-----------------------|---------------------|-----------------------| 
G|--------------|-----------------------|---------------------|-----------------------| 
D|--------------|-----------------------|---------------------|-----------------------|  
A|-2---6--2-2-5-|-6/5-------------------|-6-------------------|-6/5-5-5-5-5-5-5-5-5-5-| 
E|-0---4--0-0-3-|-4/3-0-0-0-0-0-0-0-0-0-|-4-0-0-0-0-0-0-0-0-0-|-4/3-3-3-3-3-3-3-3-3-3-| 
                      . . . . . . . . .     . . . . . . . . .       . . . . . . . . .  

Riff 1 
e|-----------------|------------------|-----------------|------------------| 
B|-----------------|------------------|-----------------|------------------| 
G|-----------------|------------------|-----------------|------------------| 
D|-----------------|------------------|-----------------|------------------| (x 2) 
A|------------7tr8-|------------5\6-6-|------------7tr8-|------------7/6-6-| 
E|-0-0--0-0-0------|-0-0--0-0-0-3\4-4-|-0-0--0-0-0------|-0-0--0-0-0-5/4-4-| 
   . .  . . .        . .  . . .         . .  . . .        . .  . . .  

Riff 2 
e|-------------------------------------------------------| 
B|-------------------------------------------------------| 
G|-------------------------------------------------------| 
D|-------------------------------------------------------| 
A|-------------------------------------------------3-3-5-| 
E|-2-2-2-2-2-2-2-2-2-2-2-2-2-2-2-2-2-2-2-2-2-2-2-2-1-1-3-| 
   . . . . . . . . . . . . . . . . . . . . . . . . 

e|---------------------------------------------------| 
B|---------------------------------------------------| 
G|---------------------------------------------------| 
D|---------------------------------5p4---------------| 
A|-------------------------------------4-4-3tr4------| 
E|-2-2-2-2-2-2-2-2-2-2-2-2-2-2-2-2--------------1tr2-| 
   . . . . . . . . . . . . . . . .  

e|-------------------------------------------------------| 
B|-------------------------------------------------------| 
G|-------------------------------------------------------| 
D|-------------------------------------------------------| 
A|-------------------------------------------------3-3-5-| 
E|-2-2-2-2-2-2-2-2-2-2-2-2-2-2-2-2-2-2-2-2-2-2-2-2-1-1-3-| 
   . . . . . . . . . . . . . . . . . . . . . . . . 

e|---------------------------------------------| 
B|---------------------------------------------| 
G|---------------------------------------------| 
D|---------------------------------------------| (x 2) 
A|---------------------------------4-4--4--4-4-| 
E|-2-2-2-2-2-2-2-2-2-2-2-2-2-2-2-2-2-2--2--2-2-| 
   . . . . . . . . . . . . . . . .  

Riff 3 
e|--------------------------------------------------| 
B|--------------------------------------------------| 
G|--------------------------------------------------| 
D|----------------------------------------------2h3-| 
A|------------3\4p(0)-------3\4p(0)--------1h2------| 
E|-1-1--1-1-1---------1-1-1---------1-1-1-----------| 

e|--------------------------------------------------| 
B|--------------------------------------------------| 
G|--------------------------------------------------| 
D|--------------------------------------------------| (x 4) 
A|------------3\4p(0)-------1-1-1-1-1-1-1-1-1-------| 
E|-1-1--1-1-1---------1-1-1-------------------0-0-0-| 

F5 (let ring) 

(fade out) 
F5 G5 G#5 Bb5 C5 Bb5 G#5 G5 F5  

************************************ 

| (n) Ghost note 
| h   Hammer-on 
| p   Pull-off 
| /   Slide up 
| \   Slide down 
| .  Palm mute 
| tr  Trill 

************************************ 
  

cifra enviadasem correções
enviado porenviada por:aleffederico
top 5 | darkthrone
top rock'n roll
Outras músicas do artista letras do(a) Darkthrone
Top cifras »Top artistas »
Petaxxon Comunicação Online
Cifras.com.br - Melhor e mais completo site de cifras e tablaturas do Brasil
Mais de 1 milhão de acordes de músicas cadastradas desde 2003
As informações contidas no nosso site são colaborações de seus usuários e podem conter erros, sendo assim, não nos responsabilizamos sobre nenhuma destas.
close
menos
mais
close
Cor dos acordes:

Cor da letra:

 

save
close
close
 
redimensionar