Cifras e Tablaturas
Darkwell

Darkwell

Pictures of Strive

Cifras Cancelar Versão de Impressão Print

Darkwell - Pictures of Strive

Tom:

  • 0:00 / 0:00
  			Pictures of Strive 
Darkwell 
 
riff 1 
 
          . .    
e |-----------| 
b |-----------| 
g |-----------| 
d |-------2-2-| 
a |-5--4--2-2-| 
e |-3--2--0-0-| 
 
riff 2 
 
                  . . . . . . . . . . . . . . . . 
|-------------------------------------------------| 
|-------------------------------------------------| 
|-------------------------------------------------| 
|-3--4--6-5-------2-2-2-2-2-2-2-2-2-2-2-2-2-2-2-2-| 
|-1--2--4-3--5-4--2-2-2-2-2-2-2-2-2-2-2-2-2-2-2-2-| 
|------------3-2--0-0-0-0-0-0-0-0-0-0-0-0-0-0-0-0-| 
 
riff 3 
 
  . . . . .      . . . . .      . . . . .      . . . . . . . . 
|--------------------------------------------------------------| 
|--------------------------------------------------------------| 
|--------------------------------------------------------------| 
|-2-2-2-2-2-2-2------------------------------------------------| 
|-2-2-2-2-2-2-2--9-9-9-9-9-9-9--5-5-5-5-5-5-5--6-6-6-6-3-3-3-3-| 
|-0-0-0-0-0-0-0--7-7-7-7-7-7-7--3-3-3-3-3-3-3--4-4-4-4-1-1-1-1-| 
 
riff 4 
 
|--------------------------------------------| 
|--------------------------------------------| 
|--------------------------------------------| 
|-2--2--2-2--5--5--5-5-----------------------| 
|-2--2--2-2--3--3--3-3--5--5--5-5--8--8--8-8-| 
|-0--0--0-0-------------3--3--3-3--6--6--6-6-| 
 
Refrão 
 
|---------------------------------------------------------------------------------------------------------------------------------| 
|---------------------------------------------------------------------------------------------------------------------------------| 
|---------------------------------------------------------------------------------------------------------------------------------| 
|-4-4-4-4-4-4-4-4-3-3-3-3-3-3-3-3-2-2-2-2-2-2-2-2-1-1-1-1-1-1-1-1-4-4-4-4-4-4-4-4-3-3-3-3-3-3-3-3-5-5-5-5-5-5-5-5-7-7-7-7-7-7-7-7-| 
|-5-5-5-5-5-5-5-5-5-5-5-5-5-5-5-5-3-3-3-3-3-3-3-3-3-3-3-3-3-3-3-3-5-5-5-5-5-5-5-5-5-5-5-5-5-5-5-5-5-5-5-5-5-5-5-5-5-5-5-5-5-5-5-5-| 
|---------------------------------------------------------------------------------------------------------------------------------| 
 
ponte 1 
 
|----------| 
|----------| 
|----------| 
|-7-7--4-4-| 
|-5-5--2-2-| 
|----------| 
 
ponte 2 
 
|----------| 
|----------| 
|----------| 
|----------| 
|-2-2--5-8-| 
|-0-0--3-6-| 
 
 
Como tocar: 
 
4x "riff 1" 
4x "riff 2" 
4x "riff 3" 
2x "Refrão" 
1x "ponte 1" 
4x "riff 3" 
2x "Refrão" 
4x "riff 4" 
1x "ponte 2" 
4x "riff 3" 
2x "Refrão" 
2x "ponte 1" 
 
 
The road behind is crumbling 
Time is paved by agony 
So many signs before me 
The way ahead I cannot see 
So many things that I long for 
The way ahead it ceased to be 
 
Tears of strive are falling 
A reasons shine arises 
Obsessive thoughts are calling 
Ideas just strange devices {x2} 
 
Temptation all around me 
Shall I resist Shall I give in 
Might it is the answer 
Tell me the question to begin 
Buried in time and history 
Not to strive is a sin 
 
Tears of strive are falling 
A reasons shine arises 
Obsessive thoughts are calling 
Ideas just strange devices {x2} 
 
Desire it defeats me 
Distorted pictures of my life 
An uncertain liquid 
The pool in which I have to dive 
Drowned by insane imaginations 
All what's left I have to strive 
 
Tears of strive are falling 
A reasons shine arises 
Obsessive thoughts are calling 
Ideas just strange devices {x2} 

    	

enviado porenviado por: funeral.93
cifra enviadaCorrigida por: sem correções
logo top cifrasComente
ico música do artistaMúsicas deste artista
ico curtiuCurtiu?
ico destaqueDestaque
Petaxxon Comunicação Online

Cifras.com.br - Melhor e mais completo site de cifras e tablaturas do Brasil Mais de 1 milhão de acordes de músicas cadastradas desde 2003
As informações contidas no nosso site são colaborações de seus usuários e podem conter erros, sendo assim, não nos responsabilizamos sobre nenhuma destas.

close
menos
mais
close
Cor dos acordes:

Cor da letra:

close
Alinhar acordes a direita Alinhar acordes a esquerda Alinhar acordes em baixo Alinhar acordes no topo
close
  Mostrar todos os acordes Esconder acordes muito fáceis Esconder acordes fáceis Esconder acordes intermediários
redimensionar
glossário