Cifras e Tablaturas
Daughter

Daughter

All I Wanted

Cifras Cancelar Versão de Impressão
cifras

Daughter - All I Wanted

fixar na tela  
Exibindo: vídeo-aula ver clipes redimensionar

Tom:

  
Bass Intro 

G|-------5--------------5-------|----------------------10--10\--| 
D|-------6--------6-------8-6/8-|-------10-------10----10--10\--| play similarly 3x 
A|-4--4--4--4--4--4--4----------|-8--8-----8--8-----8-----------| 
E|------------------------------|-------------------------------| 

G|-------5--------------5-------|----------------------------|----------------------------| 
D|-------6--------6-------8-6/8-|-------8--------8----8------|-------8--------8-----8--8--| 
A|-4--4--4--4--4--4--4----------|-6--6-----6--6-----6----6---|-6--6-----6--6-----6--------| 
E|------------------------------|----------------------------|----------------------------| 

play this part 2x 



Main Riff 

   Starts at 0:49 
e|-------------------------------|----------------------------| 
B|-------------------------------|----------------------------| 
G|-------------------------------|-5-----5---------5----------| 
D|-5-------6--------6-----6------|---------------6------5-----| 
A|----6/8-----4--4-----4--4------|----8----8---8------8-------| 
E|-------------------------------|----------------------------| 



PreChorus bars 
e|-------------------------------|----------------------------| 
B|-------------------------------|----------------------------| 
G|-------------------------------|----------------------------| 
D|-5-------6--------6-----6------|-------8--------8-----8-----| 
A|----6/8-----4--4-----4------4/-|-6--6----6---6-----6-----6--| 
E|-------------------------------|----------------------------| 



Chorus 
    
e|-----------------------------|-----------------------------| 
B|-----------------------------|-----------------------------| 
G|-----------------------------|-----------------------------| play3x 
D|-------6--------6-----6------|-------10-------10----10-----| 
A|-4--4----4---4-----4-----4---|-8--8-----8---8-----8----8\--| 
E|-----------------------------|-----------------------------| 


e|-----------------------------|-----------------------------|-----------------------------| 
B|-----------------------------|-----------------------------|-----------------------------| 
G|-----------------------------|-----------------------------|-----------------------------| 
D|-------6--------6-----6------|-------8--------8------8-----|-------8--------8------8-----| 
A|-4--4----4---4-----4-----4/--|-6--6----6---6------6-----6--|-6--6----6---6------6-----6--| 
E|-----------------------------|-----------------------------|-----------------------------| 



verse 2 

e|-------------------|---------------------| 
B|-------------------|---------------------| 
G|-------------------|---------------------| play 3x then 
D|-6-----------------|/10--------------10\-| end on first chord  
A|-4-----------------|/8----------------8\-| 
E|-------------------|---------------------| 



verse 2 Riff 2 

   (1:59) 
e|--------------------------|-8-----8------------------| 
B|--------------8-----9-----|------------11-----9------| 
G|-8-----10-----------------|--------------------------| 
D|--------------------------|--------------------------| 
A|--------------------------|--------------------------| 
E|--------------------------|--------------------------| 

e|--------------------------|-8------------------------| 
B|--------------8-----9-----|-------9----11-----9------| 
G|-8-----10-----------------|--------------------------| 
D|--------------------------|--------------------------| play 3x 
A|--------------------------|--------------------------| 
E|--------------------------|--------------------------| 

e|--------------8h9--8h9--8h|-9-8h9--8h9--8h9--8h9--8-|--------------------------|-----------------| 
B|-11\----9-----------------|--------------------------|------11----------9-------|-----------------| 
G|--------------------------|--------------------------|--------------------------|-----------------| 
D|--------------------------|--------------------------|--------------------------|-----------------| 
A|--------------------------|--------------------------|--------------------------|-----------------| 
E|--------------------------|--------------------------|--------------------------|-----------------| 

e|-8----8----8----8----8----|-8------------------------|--------------------------|-----------------| 
B|--------------------------|-----11---11---9---9---8--|----8---------------------|-----------------| 
G|--------------------------|--------------------------|--------10---10-----------|-10--------------| 
D|--------------------------|--------------------------|--------------------------|-----------------| 
A|--------------------------|--------------------------|--------------------------|-----------------| 
E|--------------------------|--------------------------|--------------------------|-----------------| 


Second guitar plays a rhythm like this: 

e|--------------------------|--------------------------| 
B|--------------------------|--------------------------| 
G|----5h6--6p5-----5h6--6p5-|----5h6--6p5-----5h6--6p5-| 
D|-3------------3-----------|-3------------3-----------| 
A|--------------------------|--------------------------| 
E|--------------------------|--------------------------| 


Outro 

   (2:48) 
e|-----------------------------|-----------------------------| 
B|-----------------------------|-----------------------------| 
G|-----------------------------|-----------------------------| play3x 
D|-------6--------6-----6------|-------10-------10----10-----| 
A|-4--4----4---4-----4-----4---|-8--8-----8---8-----8----8\--| 
E|-----------------------------|-----------------------------| 


e|-----------------------------|-----------------------------| 
B|-----------------------------|-----------------------------| 
G|-----------------------------|-----------------------------| 
D|-------6--------6-----6------|-----------------------------| 
A|-4--4----4---4-----4-----4---|-----------------------------| 
E|-----------------------------|-----------------------------| 



************************************ 

| h   Hammer-on 
| p   Pull-off 
| /   Slide up 
| \   Slide down 

************************************ 
  

top 5 | daughter
top rock alternativo
Outras músicas do artista letras do(a) Daughter
Top cifras »Top artistas »
Petaxxon Comunicação Online
Cifras.com.br - Melhor e mais completo site de cifras e tablaturas do Brasil
Mais de 1 milhão de acordes de músicas cadastradas desde 2003
As informações contidas no nosso site são colaborações de seus usuários e podem conter erros, sendo assim, não nos responsabilizamos sobre nenhuma destas.
close
menos
mais
close
Cor dos acordes:

Cor da letra:

 

save
close
close
 
redimensionar