Cifras e Tablaturas
Daughter

Daughter

Burn It Down

Cifras Cancelar Versão de Impressão
cifras

Daughter - Burn It Down

fixar na tela  
Exibindo: vídeo-aula ver clipes redimensionar

Tom:

  
Intro 
e|-2----------------------------------------------| 
B|-2-------------------------5----------4---------| 
G|-2-------------------------6----------4---------| 
D|-4-------------------------6----------4---------| 
A|-4-------------------------4----------2---------| 
E|-2----------------------------------------------| 

Bridge  
(1:48) 
e|-------9-------------9---------9-----------9----|-------9-------------9---------9-----------9----| 
B|---------10------------10-------------12-----12-|---------10------------10-------------12-----12-| 
G|----11---------11------------9---9-------9------|----11---------11------------9---9-------9------| 
D|-11----------1----11-------9-------11-----------|-11----------1----11-------9-------11-----------| 
A|------------------------------------------------|------------------------------------------------| 
E|------------------------------------------------|------------------------------------------------| 

Verse4 
e|------------------------------------------------|------------------------------------------------------| 
B|------------------------------------------------|------------------------------------------------------| 
G|------9-----------9----------6-----------8------|------9-----------9-------------13------------8-------| 
D|------------------------------------------------|------------------------------------------------------| 
A|---11---11---11-----11\7---7---7/9---9-----9/11-|---11---11---11-----11/14----14----14\9---9-----9/11--| 
E|-9---------9----9--------5---------7---7--------|-9---------9----9---------12------------7---7---------| 

e|------------------------------------------------|-------------------------------------------------| 
B|------------------------------------------------|-------------------------------------------------| 
G|------9-----------9----------6-----------8------|------9------------------------------------------| 
D|------------------------------------------------|------------------------------------6----6----6--| 
A|---11---11---11-----11\7---7---7/9---9-----9/11-|---11---11-6--6-9--6-9--7-9--7-9--7----7----7----| 
E|-9---------9----9--------5---------7---7--------|-9-----------------------------------------------| 
                                                                                        
Chorus                                                                          
e|------------------------------------------------|-----------------------------------------------------| 
B|------------------------------------------------|-----------------------------------------------------| 
G|------------------------------------------------|-----------------------------------------------------| 
D|-11----------------------7-----------9----------|-11----------------------14------------9-------------|(x2) 
A|-11----------------------7-----------9----------|-11----------------------14------------9-------------| 
E|-9-----------------------5-----------7----------|-9-----------------------12------------7-------------| 

Outro 
e|----------------------------------------------------|----|-------------------------------------------| 
B|----------------------------------------------------|----|-------------------------------------------| 
G|----------------------------------------------------|----|-------------------------------------------| 
D|-11----------------------14-----------9-------------|(x4)|-11----------------------------------------| 
A|-11----------------------14-----------9-------------|----|-11----------------------------------------| 
E|-9-----------------------12-----------7-------------|----|-9-----------------------------------------| 


************************************ 

| /   Slide up 
| \   Slide down 

************************************ 
  

top 5 | daughter
top rock alternativo
Outras músicas do artista letras do(a) Daughter
5.
Run
Top cifras »Top artistas »
Petaxxon Comunicação Online
Cifras.com.br - Melhor e mais completo site de cifras e tablaturas do Brasil
Mais de 1 milhão de acordes de músicas cadastradas desde 2003
As informações contidas no nosso site são colaborações de seus usuários e podem conter erros, sendo assim, não nos responsabilizamos sobre nenhuma destas.
close
menos
mais
close
Cor dos acordes:

Cor da letra:

 

save
close
close
 
redimensionar