Cifras e Tablaturas
Davenport Cabinet

Davenport Cabinet

Simple Worlds

Cifras Cancelar Versão de Impressão Print

Davenport Cabinet - Simple Worlds

Tom: D#

  • 0:00 / 0:00
  			
Tabbed by: CJ Hall 

Tuning: D# A# D# G C F 

   This song is "Simple Worlds" from Davenport Cabinet's album, Our Machine. The tuning is 
kind of strange but is correct. If you're in standard tuning, tune to drop D and then tune 
up a half step (or use a capo if you really want to) but leave the G string alone. It's 
mainly chords but I wanted to tab them out because they are weird. 

Listen for the strumming pattern. 


  Intro: 

 F|--------------12+----------------------------------------------------------| 
 C|--------------12+----------------------------------------------------------| 
 G|--------------12+----------------------------------------------------------| 
D#|--------------12+----------------------------------------------------------| 
A#|--------------12+----------------------------------------------------------| 
D#|--------------12+----------------------------------------------------------| 

 F|-----------5---------------5----------------5----------------0-------------| 
 C|-----------5---------------5----------------5----------------0-------------| 
 G|-----------0---------------0----------------0----------------0-------------| 
D#|-----------4---------------4----------------4----------------2-------------| 2x 
A#|-----------0---------------0----------------4----------------2-------------| 
D#|---------0-0-------------0-0--------------4-4--------------2-2-------------| 

 F|-----------5~~-------------------------------------------------------------| 
 C|-----------5~~-------------------------------------------------------------| 
 G|-----------0~~-------------------------------------------------------------| 
D#|-----------4~~-------------------------------------------------------------| 
A#|-----------0~~-------------------------------------------------------------| 
D#|---------0-0~~-------------------------------------------------------------| 

  Verse: 

 F|-----------5---------------0----------------5----------------5-------------| 
 C|-----------5---------------0----------------5----------------5-------------| 
 G|-----------0---------------0----------------0----------------0-------------| 
D#|-----------4---------------2----------------4----------------4-------------| 3x 
A#|-----------4---------------2----------------0----------------0-------------| 
D#|---------4-4-------------2-2--------------0-0--------------0-0-------------| 

 F|-----------5---------------0-----------------------------------------------| 
 C|-----------5---------------0----------------2----------------2-------------| 
 G|-----------0---------------0----------------3----------------3-------------| 
D#|-----------4---------------2----------------0----------------0-------------| 
A#|-----------4---------------2----------------2----------------2-------------| 
D#|---------4-4-------------2-2--------------0-0--------------0-0-------------| 

 F|-----------5---------------5----------------5----------------5-------------| 
 C|-----------5---------------5----------------5----------------5-------------| 
 G|-----------0---------------0----------------0----------------0-------------| 
D#|-----------4---------------4----------------4----------------4-------------| 
A#|-----------0---------------0----------------4----------------4-------------| 
D#|---------0-0-------------0-0--------------4-4--------------4-4-------------| 

 F|-----------0---------------0-----------------------------------------------| 
 C|-----------0---------------0----------------2----------------2-------------| 
 G|-----------0---------------0----------------3----------------3-------------| 
D#|-----------2---------------2----------------0----------------0-------------| 
A#|-----------2---------------2----------------2----------------2-------------| 
D#|---------2-2-------------2-2--------------0-0--------------0-0-------------| 

 F|-----------5---------------5----------------9----------------9-------------| 
 C|-----------5---------------5---------------10---------------10-------------| 
 G|-----------0---------------0---------------10---------------10-------------| 
D#|-----------4---------------4----------------7----------------7-------------| 
A#|-----------0---------------0----------------0----------------0-------------| 
D#|---------0-0-------------0-0--------------0-0--------------0-0-------------| 

 F|-----------0---------------0-------------5-5-5-5-5--0-----5-5-5-5-5--------| 
 C|-----------0---------------0-------------5-5-5-5-5--0-----5-5-5-5-5--------| 
 G|-----------0---------------0-------------0-0-0-0-0--0-----0-0-0-0-0--------| 
D#|-----------2---------------2-------------4-4-4-4-4--0-----4-4-4-4-4--------| 
A#|-----------2---------------2-------------0-0-0-0-0--0-----0-0-0-0-0--------| 
D#|---------2-2-------------2-2-------------0-0-0-0-0--0-----0-0-0-0-0--------| 

  Chorus: 

 F|-----------5---------------5----------------5----------------0-------------| 
 C|-----------5---------------5----------------5----------------0-------------| 
 G|-----------0---------------0----------------0----------------0-------------| 
D#|-----------4---------------4----------------4----------------2-------------| 2x 
A#|-----------0---------------0----------------4----------------2-------------| 
D#|---------0-0-------------0-0--------------4-4--------------2-2-------------| 

 F|-----------5~~-------------------------------------------------------------| 
 C|-----------5~~-------------------------------------------------------------| 
 G|-----------0~~-------------------------------------------------------------| 
D#|-----------4~~-------------------------------------------------------------| 
A#|-----------0~~-------------------------------------------------------------| 
D#|---------0-0~~-------------------------------------------------------------| 

Verse: 

 F|-----------5---------------0----------------5----------------5-------------| 
 C|-----------5---------------0----------------5----------------5-------------| 
 G|-----------0---------------0----------------0----------------0-------------| 
D#|-----------4---------------2----------------4----------------4-------------| 3x 
A#|-----------4---------------2----------------0----------------0-------------| 
D#|---------4-4-------------2-2--------------0-0--------------0-0-------------| 

 F|-----------5---------------0-----------------------------------------------| 
 C|-----------5---------------0----------------2----------------2-------------| 
 G|-----------0---------------0----------------3----------------3-------------| 
D#|-----------4---------------2----------------0----------------0-------------| 
A#|-----------4---------------2----------------2----------------2-------------| 
D#|---------4-4-------------2-2--------------0-0--------------0-0-------------| 

 F|-----------5---------------5----------------5----------------5-------------| 
 C|-----------5---------------5----------------5----------------5-------------| 
 G|-----------0---------------0----------------0----------------0-------------| 
D#|-----------4---------------4----------------4----------------4-------------| 
A#|-----------0---------------0----------------4----------------4-------------| 
D#|---------0-0-------------0-0--------------4-4--------------4-4-------------| 

 F|-----------0---------------0-----------------------------------------------| 
 C|-----------0---------------0----------------2----------------2-------------| 
 G|-----------0---------------0----------------3----------------3-------------| 
D#|-----------2---------------2----------------0----------------0-------------| 
A#|-----------2---------------2----------------2----------------2-------------| 
D#|---------2-2-------------2-2--------------0-0--------------0-0-------------| 

 F|-----------5---------------5----------------9----------------9-------------| 
 C|-----------5---------------5---------------10---------------10-------------| 
 G|-----------0---------------0---------------10---------------10-------------| 
D#|-----------4---------------4----------------7----------------7-------------| 
A#|-----------0---------------0----------------0----------------0-------------| 
D#|---------0-0-------------0-0--------------0-0--------------0-0-------------| 

 F|-----------0---------------0-------------5-5-5-5-5--0-----5-5-5-5-5--------| 
 C|-----------0---------------0-------------5-5-5-5-5--0-----5-5-5-5-5--------| 
 G|-----------0---------------0-------------0-0-0-0-0--0-----0-0-0-0-0--------| 
D#|-----------2---------------2-------------4-4-4-4-4--0-----4-4-4-4-4--------| 
A#|-----------2---------------2-------------0-0-0-0-0--0-----0-0-0-0-0--------| 
D#|---------2-2-------------2-2-------------0-0-0-0-0--0-----0-0-0-0-0--------| 

  Chorus: 

 F|---------------------------------------------------------------------------| 
 C|---------------------------------------------------------------------------| 
 G|----------------------a-cappella-for-two-measures--------------------------| 
D#|---------------------------------------------------------------------------| 2x 
A#|---------------------------------------------------------------------------| 
D#|---------------------------------------------------------------------------| 

 F|-----------5---------------5----------------5----------------0-------------| 
 C|-----------5---------------5----------------5----------------0-------------| 
 G|-----------0---------------0----------------0----------------0-------------| 
D#|-----------4---------------4----------------4----------------2-------------| 6x 
A#|-----------0---------------0----------------4----------------2-------------| 
D#|---------0-0-------------0-0--------------4-4--------------2-2-------------| 

 F|-----------5~~-------------------------------------------------------------| 
 C|-----------5~~-------------------------------------------------------------| 
 G|-----------0~~-------------------------------------------------------------| 
D#|-----------4~~-------------------------------------------------------------| 
A#|-----------0~~-------------------------------------------------------------| 
D#|---------0-0~~-------------------------------------------------------------| 


************************************ 

| /   slide up 
| \   slide down 
| h   hammer-on 
| p   pull-off 
| ~   vibrato 
| +   harmonic 
| x   Mute note 
| b   Bend 
| pb  Pre-bend 
| br  Bend release 
| pbr Pre-bend release 
| brb Bend release bend 

************************************ 

If you have any questions or concerns you can email me at [email protected] 
Thanks and enjoy. 
    	

enviado porenviado por: marcnagel
cifra enviadaCorrigida por: sem correções
logo top cifrasComente
ico música do artistaMúsicas deste artista
ico curtiuCurtiu?
ico destaqueDestaque
Petaxxon Comunicação Online

Cifras.com.br - Melhor e mais completo site de cifras e tablaturas do Brasil Mais de 1 milhão de acordes de músicas cadastradas desde 2003
As informações contidas no nosso site são colaborações de seus usuários e podem conter erros, sendo assim, não nos responsabilizamos sobre nenhuma destas.

close
menos
mais
close
Cor dos acordes:

Cor da letra:

close
Alinhar acordes a direita Alinhar acordes a esquerda Alinhar acordes em baixo Alinhar acordes no topo
close
  Mostrar todos os acordes Esconder acordes muito fáceis Esconder acordes fáceis Esconder acordes intermediários
redimensionar
glossário