Cifras e Tablaturas
David Bowie

David Bowie

Golden Years

Ano: 1976
Album : Station to Station

Cifras Cancelar Versão de Impressão
cifras

David Bowie - Golden Years

fixar na tela  
Exibindo: vídeo-aula ver clipes redimensionar
  
Gtr I (E A D G B E) - 'Earl Slick - Electric Guitar' 
Gtr II (E A D G B E) - 'Carlos Alomar - Electric Guitar' 
Gtr III (E A D G B E) - 'David Bowie - Acoustic Guitar' 


 Intro 
  Q=106 
  N.C. 
 4/4 
  Gtr I (El. Gtr. w/ light dist.) 
  S S S S e E +E  S S +S  E S   S E S e E S S S S S S e 
|-----------------------------|-------------------------| 
|-----------------------------|-------------------------| 
|-----------------------------|-------3-----------------| 
|-------------------------0---|-------4-------4-------2-| 
|-----4-4-4-------0-2-(2)---2-|-----4-----4h6-----2h4-4-| 
|-0h2-------0-(0)-------------|-0h2-2-------------------| 


  S E S E E +E  S S +S  S S S   S E S e E S S S S S S e 
|-----------------------------|-------------------------|| 
|-----------------------------|-------2-----------------|| 
|-----------------------------|-------3-----------------|| 
|-----------------------0---0-|-------4-------4-------2-|| 
|-----4-4-------0h2-(2)-------|-----4-----4h6-----2h4-4-|| 
|-0h2---2-0-(0)---------------|-0h2-2-------------------|| 


   Chorus 
    F#      E                       F#            E       E6E 
    S E S e E +E    S S +S  S S s   S E S e   E   S S S S S S e    4x 
||--------------------------------|--------------------------------|| 
||o-------------------------------|-------------------------------o|| 
||--------------------------------|-------3------------------------|| 
||--------4-----------------0-----|-------4-----------4-------2----|| 
||o-----4-4---------0h2-(2)-----2-|-----4---------4h6-----2h4-4---o|| 
||--0h2-----0-(0)-----------------|-0h2-2--------------------------|| 
| 
|   Gtr II (Clean El. Gtr.) 
|   E.  S e e +S  E   S  S  E   S   E.  S S E   S E   E   S E   S  4x 
||--2---2-2-0-(0)-0---0--0--0---0-|-2---2-4-2---2-0---0---0-0---0--|| 
||o-2---2-2-0-(0)-0---0--0--0---0-|-2---2-2-2---2-0---0---2-0---0-o|| 
||--3---3-3-1-(1)-1---1--1--1---1-|-3---3-3-3---3-1---1---1-1---1--|| 
||--4---4-4-2-(2)-2---2--2--2---2-|-4---4-4-4---4-2---2---2-2---2--|| 
||o---------2-(2)-2---2--2--2---2-|---------------2---2---2-2---2-o|| 
||----------0-(0)-0---0--0--0---0-|---------------0---0---0-0---0--|| 


   1st Verse 
    F#      E                       F#            E       E6E 
    S E S e E +E    S S +S  S S s   S E S e   E   S S S S S S e    4x 
||--------------------------------|--------------------------------|| 
||o-------------------------------|-------------------------------o|| 
||--------------------------------|-------3------------------------|| 
||--------4-----------------0-----|-------4-----------4-------2----|| 
||o-----4-4---------0h2-(2)-----2-|-----4---------4h6-----2h4-4---o|| 
||--0h2-----0-(0)-----------------|-0h2-2--------------------------|| 
| 
|   E.  S e e +S  E   S  S  E   S   E.  S S E   S E   E   S E   S  4x 
||--2---2-2-0-(0)-0---0--0--0---0-|-2---2-4-2---2-0---0---0-0---0--|| 
||o-2---2-2-0-(0)-0---0--0--0---0-|-2---2-2-2---2-0---0---2-0---0-o|| 
||--3---3-3-1-(1)-1---1--1--1---1-|-3---3-3-3---3-1---1---1-1---1--|| 
||--4---4-4-2-(2)-2---2--2--2---2-|-4---4-4-4---4-2---2---2-2---2--|| 
||o---------2-(2)-2---2--2--2---2-|---------------2---2---2-2---2-o|| 
||----------0-(0)-0---0--0--0---0-|---------------0---0---0-0---0--|| 


 Pre-Chorus 
  D        Bm              D        Bm 
  Q.       E +H            Q.       E +H 
|------------------------|------------------------|| 
|-3----------------------|-3----------------------|| 
|-2--------4-(4)---------|-2--------4-(4)---------|| 
|-0--------4-(4)---------|-0--------4-(4)---------|| 
|----------2-(2)---------|----------2-(2)---------|| 
|------------------------|------------------------|| 
| 
| Gtr III (Ac. Gtr.) 
| E  S S E E  S  S E E E   E  S S E E  S  S E E E 
|-2--2-2-2-2--2--2-2-2-2-|-2--2-2-2-2--2--2-2-2-2-|| 
|-3--3-3-3-3--3--3-3-3-3-|-3--3-3-3-3--3--3-3-3-3-|| 
|-2--2-2-2-4--4--4-4-4-4-|-2--2-2-2-4--4--4-4-4-4-|| 
|-0--0-0-0-4--4--4-4-4-4-|-0--0-0-0-4--4--4-4-4-4-|| 
|----------2--2--2-2-2-2-|----------2--2--2-2-2-2-|| 
|------------------------|------------------------|| 


   Chorus 
    $ 
    F#      E                       F#            E       E6E 
    S E S e E +E    S S +S  S S s   S E S e   E   S S S S S S e 
||--------------------------------|--------------------------------|| 
||o-------------------------------|-------------------------------o|| 
||--------------------------------|-------3------------------------|| 
||--------4-----------------0-----|-------4-----------4-------2----|| 
||o-----4-4---------0h2-(2)-----2-|-----4---------4h6-----2h4-4---o|| 
||--0h2-----0-(0)-----------------|-0h2-2--------------------------|| 
| 
|   Gtr II 
|   E.  S e e +S  E   S  S  E   S   E.  S S E   S E   E   S E   S 
||--2---2-2-0-(0)-0---0--0--0---0-|-2---2-4-2---2-0---0---0-0---0--|| 
||o-2---2-2-0-(0)-0---0--0--0---0-|-2---2-2-2---2-0---0---2-0---0-o|| 
||--3---3-3-1-(1)-1---1--1--1---1-|-3---3-3-3---3-1---1---1-1---1--|| 
||--4---4-4-2-(2)-2---2--2--2---2-|-4---4-4-4---4-2---2---2-2---2--|| 
||o---------2-(2)-2---2--2--2---2-|---------------2---2---2-2---2-o|| 
||----------0-(0)-0---0--0--0---0-|---------------0---0---0-0---0--|| 


   2nd & 3rd Verses 
    F#      E                       F#            E       E6E 
    S E S e E +E    S S +S  S S s   S E S e   E   S S S S S S e    3x 
||--------------------------------|--------------------------------|| 
||o-------------------------------|-------------------------------o|| 
||--------------------------------|-------3------------------------|| 
||--------4-----------------0-----|-------4-----------4-------2----|| 
||o-----4-4---------0h2-(2)-----2-|-----4---------4h6-----2h4-4---o|| 
||--0h2-----0-(0)-----------------|-0h2-2--------------------------|| 
| 
|   E.  S e e +S  E   S  S  E   S   E.  S S E   S E   E   S E   S  3x 
||--2---2-2-0-(0)-0---0--0--0---0-|-2---2-4-2---2-0---0---0-0---0--|| 
||o-2---2-2-0-(0)-0---0--0--0---0-|-2---2-2-2---2-0---0---2-0---0-o|| 
||--3---3-3-1-(1)-1---1--1--1---1-|-3---3-3-3---3-1---1---1-1---1--|| 
||--4---4-4-2-(2)-2---2--2--2---2-|-4---4-4-4---4-2---2---2-2---2--|| 
||o---------2-(2)-2---2--2--2---2-|---------------2---2---2-2---2-o|| 
||----------0-(0)-0---0--0--0---0-|---------------0---0---0-0---0--|| 


                         To Coda 
  F#      E                        F#            E       E6E 
  S E S e E +E    S S +S  S S s    S E S e   E   S S S S S S e 
|--------------------------------|-------------------------------|| 
|--------------------------------|-------------------------------|| 
|--------------------------------|-------3-----------------------|| 
|-------4-----------------0------|-------4-----------4-------2---|| 
|-----4-4---------0h2-(2)-----2--|-----4---------4h6-----2h4-4---|| 
|-0h2-----0-(0)------------------|-0h2-2-------------------------|| 
| 
| E.  S e e +S  E   S  S  E   S    E.  S S E   S E   E   S E   S 
|-2---2-2-0-(0)-0---0--0--0---0--|-2---2-4-2---2-0---0---0-0---0-|| 
|-2---2-2-0-(0)-0---0--0--0---0--|-2---2-2-2---2-0---0---2-0---0-|| 
|-3---3-3-1-(1)-1---1--1--1---1--|-3---3-3-3---3-1---1---1-1---1-|| 
|-4---4-4-2-(2)-2---2--2--2---2--|-4---4-4-4---4-2---2---2-2---2-|| 
|---------2-(2)-2---2--2--2---2--|---------------2---2---2-2---2-|| 
|---------0-(0)-0---0--0--0---0--|---------------0---0---0-0---0-|| 


 Bridge 
  D        Bm             D      Bm 
  E  E   E E S S e S E.   Q    E E S S e Q 
|------------5p2p0---2--|----------5p2p0----| 
|--------------------3--|-3--------------3--| 
|-2--------4-------4----|-2----2-4----------| 
|-0------2-4------------|-0------4----------| 
|--------2-2------------|--------2----------| 
|-----------------------|-------------------| 
| 
| Gtr III 
| E.   S E E S S E Q      E. S E E S S E Q 
|-2----2-2-2-2-2-2-2----|-2--2-2-2-2-2-2-2--| 
|-3----3-3-3-3-3-3-3----|-3--3-3-3-3-3-3-3--| 
|-2----2-2-4-4-4-4-4----|-2--2-2-4-4-4-4-4--| 
|-0----0-0-4-4-4-4-4----|-0--0-0-4-4-4-4-4--| 
|----------2-2-2-2-2----|--------2-2-2-2-2--| 
|-----------------------|-------------------| 


  G      C                 A        C#°7 
  E. S E E +H              E. S +E  E +H 
|-3------0-(0)-----------|----------3-(3)---------| 
|-0--0---1-(1)-----------|-2--2-(2)-5-(5)---------| 
|-0--0---0-(0)-----------|-2--2-(2)-3-(3)---------| 
|-0--0---2-(2)-----------|-2--2-(2)-5-(5)---------| 
|-2------3-(3)-----------|-0--------4-(4)---------| 
|-3----------------------|------------------------| 
| 
| E. S E E +S  S E S S E   E. S  E  E +S  S E E E 
|-3--3---0-(0)-0-0-0-0-0-|-0--0--0--3-(3)-3-3-3---| 
|-0--0---1-(1)-1-1-1-1-1-|-2--2--2--5-(5)-5-5-5---| 
|-0--0---0-(0)-0-0-0-0-0-|-2--2--2--3-(3)-3-3-3---| 
|-0--0---2-(2)-2-2-2-2-2-|-2--2--2--5-(5)-5-5-5---| 
|-2--2---3-(3)-3-3-3-3-3-|-0--0--0--4-(4)-4-4-4---| 
|-3--3-------------------|------------------------| 


                               D.S. al Coda 
  Bm E7+9                        N.C. 
                                2/4 
  E. S +E  E  S   S  S  S  E E   E E E a E 
|----------------15-15-15-15---|------------|| 
|----------------15-15-15-15---|------------|| 
|-4--4-(4)---------------------|------------|| 
|-4--4-(4)-2-------------------|------------|| 
|-2--2-(2)-2-------------------|-2-4--------|| 
|----------0-------------------|-----0-2s4--|| 
| 
| E. S  E  E +S   S  S  S  E E   W 
|-2--2--2--3-(3)--3--3--3--3---|------------|| 
|-3--3--3--3-(3)--3--3--3--3---|------------|| 
|-4--4--4--1-(1)--1--1--1--1---|------------|| 
|-4--4--4--2-(2)--2--2--2--2---|------------|| 
|-2--2--2--2-(2)--2--2--2--2---|------------|| 
|----------0-(0)--0--0--0--0---|------------|| 


                                    Interlude 
  & 
  F#             E                   F#      E 
 4/4 
  E  S S e   E   S S S S S S e       S E S e E +E    S S +S  S S s 
|--------------------------------||--------------------------------| 
|--------------------------------||o-------------------------------| 
|--------3-----------------------||--------------------------------| 
|------4-4-----------4-------2---||--------4-----------------0-----| 
|------4---------4h6-----2h4-4---||o-----4-4---------0h2-(2)-----2-| 
|--------------------------------||--0h2-----0-(0)-----------------| 
| 
| Gtr II 
| E.   S S E   S E   E   S E   S     E.  S e e +S  E   S  S  E   S 
|-2----2-4-2---2-0---0---0-0---0-||--2---2-2-0-(0)-0---0--0--0---0-| 
|-2----2-2-2---2-0---0---2-0---0-||o-2---2-2-0-(0)-0---0--0--0---0-| 
|-3----3-3-3---3-1---1---1-1---1-||--3---3-3-1-(1)-1---1--1--1---1-| 
|-4----4-4-4---4-2---2---2-2---2-||--4---4-4-2-(2)-2---2--2--2---2-| 
|----------------2---2---2-2---2-||o---------2-(2)-2---2--2--2---2-| 
|----------------0---0---0-0---0-||----------0-(0)-0---0--0--0---0-| 


  F#            E 
  S E S e   E   S S S S S S e 
|----------------------------------|| 
|---------------------------------o|| 
|-------3--------------------------|| 
|-------4-----------4-------2------|| 
|-----4---------4h6-----2h4-4-----o|| 
|-0h2-2----------------------------|| 
| 
| E.  S S E   S E   E   S E   S 
|-2---2-4-2---2-0---0---0-0---0----|| 
|-2---2-2-2---2-0---0---2-0---0---o|| 
|-3---3-3-3---3-1---1---1-1---1----|| 
|-4---4-4-4---4-2---2---2-2---2----|| 
|---------------2---2---2-2---2---o|| 
|---------------0---0---0-0---0----|| 


 Pre-Chorus 
  D        Bm              D        Bm 
  Q.       E +H            Q.       E +H 
|------------------------|------------------------| 
|-3----------------------|-3----------------------| 
|-2--------4-(4)---------|-2--------4-(4)---------| 
|-0--------4-(4)---------|-0--------4-(4)---------| 
|----------2-(2)---------|----------2-(2)---------| 
|------------------------|------------------------| 
| 
| Gtr III 
| E  S S E E  S  S E E E   E  S S E E  S  S E E E 
|-2--2-2-2-2--2--2-2-2-2-|-2--2-2-2-2--2--2-2-2-2-| 
|-3--3-3-3-3--3--3-3-3-3-|-3--3-3-3-3--3--3-3-3-3-| 
|-2--2-2-2-4--4--4-4-4-4-|-2--2-2-2-4--4--4-4-4-4-| 
|-0--0-0-0-4--4--4-4-4-4-|-0--0-0-0-4--4--4-4-4-4-| 
|----------2--2--2-2-2-2-|----------2--2--2-2-2-2-| 
|------------------------|------------------------| 


   Chorus 
    F#      E                       F#            E       E6E 
    S E S e E +E    S S +S  S S s   S E S e   E   S S S S S S e 
||--------------------------------|--------------------------------|| 
||o-------------------------------|-------------------------------o|| 
||--------------------------------|-------3------------------------|| 
||--------4-----------------0-----|-------4-----------4-------2----|| 
||o-----4-4---------0h2-(2)-----2-|-----4---------4h6-----2h4-4---o|| 
||--0h2-----0-(0)-----------------|-0h2-2--------------------------|| 
| 
|   E.  S e e +S  E   S  S  E   S   E.  S S E   S E   E   S E   S 
||--2---2-2-0-(0)-0---0--0--0---0-|-2---2-4-2---2-0---0---0-0---0--|| 
||o-2---2-2-0-(0)-0---0--0--0---0-|-2---2-2-2---2-0---0---2-0---0-o|| 
||--3---3-3-1-(1)-1---1--1--1---1-|-3---3-3-3---3-1---1---1-1---1--|| 
||--4---4-4-2-(2)-2---2--2--2---2-|-4---4-4-4---4-2---2---2-2---2--|| 
||o---------2-(2)-2---2--2--2---2-|---------------2---2---2-2---2-o|| 
||----------0-(0)-0---0--0--0---0-|---------------0---0---0-0---0--|| 


   4th Verse 
    F#      E                       F#            E       E6E 
    S E S e E +E    S S +S  S S s   S E S e   E   S S S S S S e 
||--------------------------------|--------------------------------|| 
||o-------------------------------|-------------------------------o|| 
||--------------------------------|-------3------------------------|| 
||--------4-----------------0-----|-------4-----------4-------2----|| 
||o-----4-4---------0h2-(2)-----2-|-----4---------4h6-----2h4-4---o|| 
||--0h2-----0-(0)-----------------|-0h2-2--------------------------|| 
| 
|   E.  S e e +S  E   S  S  E   S   E.  S S E   S E   E   S E   S 
||--2---2-2-0-(0)-0---0--0--0---0-|-2---2-4-2---2-0---0---0-0---0--|| 
||o-2---2-2-0-(0)-0---0--0--0---0-|-2---2-2-2---2-0---0---2-0---0-o|| 
||--3---3-3-1-(1)-1---1--1--1---1-|-3---3-3-3---3-1---1---1-1---1--|| 
||--4---4-4-2-(2)-2---2--2--2---2-|-4---4-4-4---4-2---2---2-2---2--|| 
||o---------2-(2)-2---2--2--2---2-|---------------2---2---2-2---2-o|| 
||----------0-(0)-0---0--0--0---0-|---------------0---0---0-0---0--|| 


   Interlude 
    F#      E                       F#            E       E6E 
    S E S e E +E    S S +S  S S s   S E S e   E   S S S S S S e 
||--------------------------------|--------------------------------|| 
||o-------------------------------|-------------------------------o|| 
||--------------------------------|-------3------------------------|| 
||--------4-----------------0-----|-------4-----------4-------2----|| 
||o-----4-4---------0h2-(2)-----2-|-----4---------4h6-----2h4-4---o|| 
||--0h2-----0-(0)-----------------|-0h2-2--------------------------|| 
| 
|   E.  S e e +S  E   S  S  E   S   E.  S S E   S E   E   S E   S 
||--2---2-2-0-(0)-0---0--0--0---0-|-2---2-4-2---2-0---0---0-0---0--|| 
||o-2---2-2-0-(0)-0---0--0--0---0-|-2---2-2-2---2-0---0---2-0---0-o|| 
||--3---3-3-1-(1)-1---1--1--1---1-|-3---3-3-3---3-1---1---1-1---1--|| 
||--4---4-4-2-(2)-2---2--2--2---2-|-4---4-4-4---4-2---2---2-2---2--|| 
||o---------2-(2)-2---2--2--2---2-|---------------2---2---2-2---2-o|| 
||----------0-(0)-0---0--0--0---0-|---------------0---0---0-0---0--|| 


 Bridge 
  D        Bm             D      Bm 
  E  E   E E S S e S E.   Q    E E S S e Q 
|------------5p2p0---2--|----------5p2p0----| 
|--------------------3--|-3--------------3--| 
|-2--------4-------4----|-2----2-4----------| 
|-0------2-4------------|-0------4----------| 
|--------2-2------------|--------2----------| 
|-----------------------|-------------------| 
| 
| Gtr III 
| E.   S E E S S E Q      E. S E E S S E Q 
|-2----2-2-2-2-2-2-2----|-2--2-2-2-2-2-2-2--| 
|-3----3-3-3-3-3-3-3----|-3--3-3-3-3-3-3-3--| 
|-2----2-2-4-4-4-4-4----|-2--2-2-4-4-4-4-4--| 
|-0----0-0-4-4-4-4-4----|-0--0-0-4-4-4-4-4--| 
|----------2-2-2-2-2----|--------2-2-2-2-2--| 
|-----------------------|-------------------| 


  G                        A 
  E. S E E +H              E. S +E  E +H 
|-3------0-(0)-----------|----------3-(3)---------| 
|-0--0---1-(1)-----------|-2--2-(2)-5-(5)---------| 
|-0--0---0-(0)-----------|-2--2-(2)-3-(3)---------| 
|-0--0---2-(2)-----------|-2--2-(2)-5-(5)---------| 
|-2------3-(3)-----------|-0--------4-(4)---------| 
|-3----------------------|------------------------| 
| 
| E. S E E +S  S E S S E   E. S  E  E +S  S E E E 
|-3--3---0-(0)-0-0-0-0-0-|-0--0--0--3-(3)-3-3-3---| 
|-0--0---1-(1)-1-1-1-1-1-|-2--2--2--5-(5)-5-5-5---| 
|-0--0---0-(0)-0-0-0-0-0-|-2--2--2--3-(3)-3-3-3---| 
|-0--0---2-(2)-2-2-2-2-2-|-2--2--2--5-(5)-5-5-5---| 
|-2--2---3-(3)-3-3-3-3-3-|-0--0--0--4-(4)-4-4-4---| 
|-3--3-------------------|------------------------| 


                                         Outro 
  Bm       E7+9                  N.C.     F#sus4F#      E6 
                                2/4      4/4 
  E. S +E  E  S   S  S  S  E E   W         E  E      e  E  E  E S  S E 
|----------------15-15-15-15---|------||-------------2-------------------| 
|----------------15-15-15-15---|------||o------------2-------------------| 
|-4--4-(4)---------------------|------||-------------3----------4--4-----| 
|-4--4-(4)-2-------------------|------||------------------------2--------| 
|-2--2-(2)-2-------------------|------||o-----4---------------2----------| 
|----------0-------------------|------||------2---------------0----------| 
| 
|                                         Gtr II 
| E. S  E  E +S   S  S  S  E E   W         E.    S  +E  E +E  E E.     S 
|-2--2--2--3-(3)--3--3--3--3---|------||----------------9-(9)-9-9------9-| 
|-3--3--3--3-(3)--3--3--3--3---|------||o-12----11-(11)-9-(9)-9-9------9-| 
|-4--4--4--1-(1)--1--1--1--1---|------||--11----11-(11)-9-(9)-9-9------9-| 
|-4--4--4--2-(2)--2--2--2--2---|------||--11----11-(11)-9-(9)-9-9------9-| 
|-2--2--2--2-(2)--2--2--2--2---|------||o--9-----9--(9)-7-(7)-7-7------7-| 
|----------0-(0)--0--0--0--0---|------||---------------------------------| 


  F#sus4F#   E6                F#sus4F#     E6 
   E  e    E S S  e  e S S E    E  E    S S S s  S  E.    S  S  E  9x 
|----------------------------|-------------------------------------|| 
|----------2---x-------------|------------------------------------o|| 
|----------3---x-------4-4---|----------3-----6-----4--------4-----|| 
|----------4-----------2-2---|----------4-----------4--------4-----|| 
|-----4----------------------|-----4----------------------6-------o|| 
|-----2-----------2--2-------|--2---------0-4----------------------|| 
| 
|  E.    S E E   +Q    E   E    E.    S E   E   +E     E +S  E.    9x 
|------------9---(9)---9---9-|--------------9---(9)----9-(9)-9-----|| 
|-12----11---9---(9)---9---9-|-12----11-----9---(9)----9-(9)-9----o|| 
|-11----11---9---(9)---9---9-|-11----11-----9---(9)----9-(9)-9-----|| 
|-11----11---9---(9)---9---9-|-11----11-----9---(9)----9-(9)-9-----|| 
|--9-----9---7---(7)---7---7-|--9-----9-----7---(7)----7-(7)-7----o|| 
|----------------------------|-------------------------------------|| 


  F#sus4F#      E6                 F#sus4F#   E6 
   E  E      e  E  E  E S  S E      E  e    E S S  e  e S S E 
|------------2-------------------|----------------------------| 
|------------2-------------------|----------2---x-------------| 
|------------3----------4--4-----|----------3---x-------4-4---| 
|-----------------------2--------|----------4-----------2-2---| 
|-----4---------------2----------|-----4----------------------| 
|-----2---------------0----------|-----2-----------2--2-------| 
| 
|  E.    S  +E  E +E  E E.     S    E.    S E E   +Q    E   E 
|---------------9-(9)-9-9------9-|------------9---(9)---9---9-| 
|-12----11-(11)-9-(9)-9-9------9-|-12----11---9---(9)---9---9-| 
|-11----11-(11)-9-(9)-9-9------9-|-11----11---9---(9)---9---9-| 
|-11----11-(11)-9-(9)-9-9------9-|-11----11---9---(9)---9---9-| 
|--9-----9--(9)-7-(7)-7-7------7-|--9-----9---7---(7)---7---7-| 
|--------------------------------|----------------------------| 


  F#suF#     E6                F# 
   e  e    E S S  e    E E E    S  E. +H.         +W 
|----------------------------|-----------------|---------*| 
|----------------------------|--2-(2)-(2)------|--(2)----*| 
|----------3-------------4---|--1h=3--(3)------|--(3)----*| 
|----------4-----------2-2---|-----------------|---------*| 
|-----4----------------2-----|-----------------|---------*| 
|--2-----------2--0----------|-----------------|---------*| 
| 
|  E.    S E E   +S  S E e e    W                 +W 
|------------9---(9)-9-9-9-9-|-----------------|---------*| 
|-12----11---9---(9)-9-9-9-9-|-11--------------|-(11)----*| 
|-11----11---9---(9)-9-9-9-9-|-11--------------|-(11)----*| 
|-11----11---9---(9)-9-9-9-9-|-11--------------|-(11)----*| 
|--9-----9---7---(7)-7-7-7-7-|--9--------------|--(9)----*| 
|----------------------------|-----------------|---------*| 

 
  

cifra enviadasem correções
enviado porenviada por:aleffederico
top 5 | david bowie
top rock'n roll
Outras músicas do artista letras do(a) David Bowie
Top cifras »Top artistas »
Petaxxon Comunicação Online
Cifras.com.br - Melhor e mais completo site de cifras e tablaturas do Brasil
Mais de 1 milhão de acordes de músicas cadastradas desde 2003
As informações contidas no nosso site são colaborações de seus usuários e podem conter erros, sendo assim, não nos responsabilizamos sobre nenhuma destas.
close
menos
mais
close
Cor dos acordes:

Cor da letra:

 

save
close
close
 
redimensionar