Cifras e Tablaturas
Day6

Day6

Never Ever

Cifras Cancelar Versão de Impressão
cifras

Day6 - Never Ever

fixar na tela  
Exibindo: vídeo-aula ver clipes redimensionar

Tom:

  
Intro 

Rhythm (Sungjin + Jae) 
e|------------------------------------------x-xxxxxx-------------------------| 
B|------------------------------------------x-xxxxxx-------------------------| 
G|------------------------------------5-5---x-xxxxxx-------------------------| 
D|------------------------------------5-5---x-xxxxxx-------------------------| 
A|--3353333-3335536--3353333-3335536--3-3---x-xxxxxx-------------------------| 
E|------------------------------------------x-xxxxxx-------------------------| 


e|---------------------------------------------------------------------------| 
B|---------------------------------------------------------------------------| 
G|--5--5-5-5--5-5-5--5-5-5\--------------------------------------------------| 
D|--5--5-5-5--5-5-5--5-5-5\--------------------------------------------------| 
A|--3--3-3-3--3-3-3--3-3-3\--------------------------------------------------| 
E|---------------------------------------------------------------------------| 


e|---------------------------------------------------------------------------| 
B|---------------------------------------------------------------------------| 
G|--5-55--5-55-55------------------------------------------------------------| 
D|--5-55--5-55-55--5-55--5-55-55--6-66--6-66-66--3-33--3-33-33---------------| 
A|--3-33--3-33-33--5-55--5-55-55--6-66--6-66-66--3-33--3-33-33---------------| 
E|-----------------3-33--3-33-33--4-44--4-44-44--1-11--1-11-11---------------| 


Lead (just Jae) - Overlapping the last bar       ^^^^^^^^^^^^^ 
e|---------------------------------------------------------------------------| 
B|---------------------------------------------------------------------------| 
G|-----------------------------------------------13------11--/--12-----------| 
D|---------------------------------------------------------------------------| 
A|-----------------------------------------------11-x16--8-x5/--11-x4--------| 
E|---------------------------------------------------------------------------| 

Verse is just drums + bass 

Pre-Chorus 
on the 2nd "sijak dwaesseo dulmanui Romance.." 
e|--------------------------| 
B|--------------------------| 
G|--5-----------------------| 
D|--5-----5-----6-----3-----| 
A|--3-x8--5-----6-----3-----| 
E|--------3-x8--4-x8--1-x8--| 
    x     x     x     x 


Chorus 

e|----------------------------| on 2nd part of the Chorus when the music cuts out for a short moment, 
B|----------------------------| don't play the first chords until everything comes back in. 
G|--5-------------------------| (I hope that's understandable) 
D|--5-----5-----6-----3-------| 
A|--3-x16-5-----6-----3-------| 
E|--------3-x16-4-x16-1-x16---| x2 

Young K Bass Solo + dance break 

Just before the first part of the dance break ends: 
e|---------------------------------------------------------------------------| 
B|---------------------------------------------------------------------------| 
G|---------------------------------------------------------------------------| 
D|--3-----8--9--10\---3/5--3/5--3/5--3/5--6------3-----8--9--10\-------------| 
A|--3-----8--9--10\---3/5--3/5--3/5--3/5--6------3-----8--9--10\-------------| 
E|--1-x8--6--7--8-\---1/3--1/3--1/3--1/3--4-x16--1-x8--6--7--8-\-------------| 

e|---------------------------------------------------------------------------| 
B|---------------------------------------------------------------------------| 
G|---------------------------------------------------------------------------| 
D|--55-5-5-5-5555-5--66-6-6-6-6666-6\--3--3--8--9--10\-----------------------| 
A|--55-5-5-5-5555-5--66-6-6-6-6666-6\--3--3--8--9--10\-----------------------| 
E|--33-3-3-3-3333-3--44-4-4-4-4444-4\--1--1--6--7--8-\-----------------------| 


Pre-Chorus 
"duryeoumeun eopseo mangseoril piryo eopseo" 
e|---------------------------------------------------------------------------| 
B|---------------------------------------------------------------------------| 
G|----------------------5----------------------------------------------------| 
D|--6-6--6-6---3--8--9--5-----5-----6-6--6-6--3------------------------------| 
A|--6-6--6-6---3--8--9--3-x16-5-----6-6--6-6--3------------------------------| 
E|--4-4--4-4---1--6--7--------3-x16-4-4--4-4--1------------------------------| 


Chorus 

Bridge is just drums + bass 


Outro 
"never ever ever.." 
e|--------------------------| 
B|--------------------------| 
G|--5-7-8-5-7-8-10---12-----| 
D|--------------------------| 
A|--3-5-6-3-5-6-8-x8-10-x8--| 
E|--------------------------| 

The last part of the outro has the same power chords as the Chorus, 
just different strumming patterns and pauses. 

Finish on: 
e|--------| 
B|--------| 
G|--5~----| 
D|--5~----| 
A|--3~----| 
E|--------| 


************************************ 

| x   Dead note 
| /   Slide up 
| \   Slide down 
| ~   Vibrato 

************************************ 
  

top 5 | day6
top rock'n roll
Outras músicas do artista letras do(a) Day6
5.
Pour
Top cifras »Top artistas »
Petaxxon Comunicação Online
Cifras.com.br - Melhor e mais completo site de cifras e tablaturas do Brasil
Mais de 1 milhão de acordes de músicas cadastradas desde 2003
As informações contidas no nosso site são colaborações de seus usuários e podem conter erros, sendo assim, não nos responsabilizamos sobre nenhuma destas.
close
menos
mais
close
Cor dos acordes:

Cor da letra:

 

save
close
close
 
redimensionar