Cifras e Tablaturas
Dead Combo

Dead Combo

Esse Olhar Que Era Só Teu

Cifras Cancelar Versão de Impressão Print

Dead Combo - Esse Olhar Que Era Só Teu

Tom: Dm

  • 0:00 / 0:00
  			Intro 

e|---------------------------------------------------------------------------| 
B|-------6/10~---8----6p8p6----5-----5-6-8/10-8-6-5-----6--66--55/6-5-3p5p3--| 
G|-----7------------------------------------------------7--77--66/7---------6| 
D|---7--------------------------------------------------8--88--77/8----------| 
A|-5----------------------------------------------------8--88--77/8----------| 
E|---------------------------------------------------6-----------------------| 

e|---------------------------------------------------------------------------| 
B|---------------------------------------------------------------------------| 
G|---------------------------------------------------------------------------| 
D|---2--1--------------------------------------------------------------------| 
A|-0-------------------------------------------------------------------------| 
E|---------------------------------------------------------------------------| 


Chords :  Dm , A7 , A#/Bb , A , Dm again . this is in the intro and main song.  



made by : Ricardo Sousa / Portugal 



************************************ 

| /  Slide up 
| ~  Vibrato 
| \  Slide down 

************************************ 
    	

enviado porenviado por: ubirbomfim
cifra enviadaCorrigida por: sem correções
logo top cifrasComente
ico música do artistaMúsicas deste artista
ico curtiuCurtiu?
ico destaqueDestaque
Petaxxon Comunicação Online

Cifras.com.br - Melhor e mais completo site de cifras e tablaturas do Brasil Mais de 1 milhão de acordes de músicas cadastradas desde 2003
As informações contidas no nosso site são colaborações de seus usuários e podem conter erros, sendo assim, não nos responsabilizamos sobre nenhuma destas.

close
menos
mais
close
Cor dos acordes:

Cor da letra:

close
Alinhar acordes a direita Alinhar acordes a esquerda Alinhar acordes em baixo Alinhar acordes no topo
close
  Mostrar todos os acordes Esconder acordes muito fáceis Esconder acordes fáceis Esconder acordes intermediários
redimensionar
glossário