Cifras e Tablaturas
Dead Meadow

Dead Meadow

The Breeze Always Blows

Cifras Cancelar Versão de Impressão
cifras

Dead Meadow - The Breeze Always Blows

fixar na tela  
Exibindo: vídeo-aula ver clipes redimensionar
  
Main riff: 

 f|----------------------8------------------------------| 
Db|---10--10---9--7--7------------10--10---9--7--7---7--| 
Ab|---12--12--12--9--8h9----------12--12--12--9--8h9----| 
Db|-----------------------------------------------------| 
Ab|-----------------------------------------------------| 
Db|-0--------------------------0------------------------| 

 f|---------------------8-----10s12----------8-| 
Db|---10--10---9--7--7--------10s12--9-8-0-----| 
Ab|---12--12--12--9--8h9-------------9-9-9-9---| 
Db|----------------------------------------0---| 
Ab|--------------------------------------------| 
Db|-0-----------------------0------------------|  x 5 

On the sixth time, only play the first half of the riff: 

 f|----------------------8---------------------------| 
Db|---10--10---9--7--7------------10--10---9--7--7---| 
Ab|---12--12--12--9--8h9----------12--12--12--9--8---| 
Db|--------------------------------------------------| 
Ab|--------------------------------------------------| 
Db|-0--------------------------0---------------------| 


Chorus: 

 f|--5---3--------5--3--------| 
Db|--5---3--------5--3--------| 
Ab|--5---3--------5--3--------| 
Db|--5---3--------5--3--------| 
Ab|--5---3--5--3--5--3--5--3--| 
Db|--5---3--------5--3--------| 

 f|----------------------8-----------------------------| 
Db|---10--10---9--7--7------------10--10---9--7--7-----| 
Ab|---12--12--12--9--8h9----------12--12--12--9--8h9---| 
Db|----------------------------------------------------| 
Ab|----------------------------------------------------| 
Db|-0--------------------------0-----------------------| 

Bridge: 

 f|--10--10-12--0--/12--| 
Db|--10--10-12-10--/12--| 
Ab|---------------------| 
Db|---------------------| 
Ab|---------------------| 
Db|---------------------| 

 f|------------------------------------0-------------0--------| 
Db|--12--10--7---0---4-5-4-5-4--\2-2-----2---2---2-----2---2--| 
Ab|------------7---5------------\3---3-----3---3---3-----3----| 
Db|-----------------------------------------------------------| 
Ab|-----------------------------------------------------------| 
Db|-----------------------------------------------------------| 

 f|----------------------8-----------------------------| 
Db|---10--10---9--7--7------------10--10---9--7--7-----| 
Ab|---12--12--12--9--8h9----------12--12--12--9--8h9---| 
Db|----------------------------------------------------| 
Ab|----------------------------------------------------| 
Db|-0--------------------------0-----------------------| 

 f|--10--10-12--0--/12--| 
Db|--10--10-12-10--/12--| 
Ab|---------------------| 
Db|---------------------| 
Ab|---------------------| 
Db|---------------------| 

 f|------------------------------------0-------------0--------| 
Db|--12--10--7---0---4-5-4-5-4--\2-2-----2---2---2-----2---2--| 
Ab|------------7---5------------\3---3-----3---3---3-----3----| 
Db|-----------------------------------------------------------| 
Ab|-----------------------------------------------------------| 
Db|-----------------------------------------------------------| 

 f|----------------------8-----------------------------| 
Db|---10--10---9--7--7------------10--10---9--7--7-----| 
Ab|---12--12--12--9--8h9----------12--12--12--9--8h9---| 
Db|----------------------------------------------------| 
Ab|----------------------------------------------------| 
Db|-0--------------------------0-----------------------| 


Second Verse: 

 f|---------------------------| 
Db|---10--10--10--------------| 
Ab|---12--12--12-2h3p2p0---0--| 
Db|----------------------3----| 
Ab|---------------------------| 
Db|-0-------------------------| x 3 


Then play the Chorus and end the song with the bridge 
End the song like this: 

 f|--------------------------8-7--8--| 
Db|-----10--10---9--7--7---7---6--7--| 
Ab|-----12--12--12--9--8h9-----8--9--| 
Db|----------------------------------| 
Ab|----------------------------------| 
Db|--0-------------------------------| 





/ = slide up 
\ = slide down 
h = hammer on 
p = pull off 
  

top 5 | dead meadow
top heavy metal
Outras músicas do artista letras do(a) Dead Meadow
Top cifras »Top artistas »
Petaxxon Comunicação Online
Cifras.com.br - Melhor e mais completo site de cifras e tablaturas do Brasil
Mais de 1 milhão de acordes de músicas cadastradas desde 2003
As informações contidas no nosso site são colaborações de seus usuários e podem conter erros, sendo assim, não nos responsabilizamos sobre nenhuma destas.
close
menos
mais
close
Cor dos acordes:

Cor da letra:

 

save
close
close
 
redimensionar