Cifras e Tablaturas
Deadly Circus Fire

Deadly Circus Fire

Devils Opera

Cifras Cancelar Versão de Impressão
cifras

Deadly Circus Fire - Devils Opera

fixar na tela  
Exibindo: vídeo-aula ver clipes redimensionar

Tom:

  
Intro - Verse 

D|-------0-0-0-0-------------------------------------------------------------| 
A|-------6-6-6-6-------------------------------------------------------------| 
F|-------9-9-9-9-------------------------------------------------------------| 
C|-------0-0-0-0--14-14-14-14---------7-7-7/8-8-8----------------------------| 
G|-------0-0-0-0--13-13-13-13---------5-5-5/7-7-7--7-------------------------| 
C|--0-0-----------12-12-12-12--000-0--5-5-5/7-7-7----10-8-7------------------| 


Pre-Chorus 

D|---------------------------------------------------------------------------| 
A|---------------------------------------------------------------------------| 
F|---------------------------------------------------------------------------| 
C|---------------------------------------------------------------------------| 
G|--6--------(5Ho6Po5Ho6)---5-------8----------------------------------------| 
C|----3-0-0---------------8---8-6-5---6-5------------------------------------| 

D|---------------------------------------------------------------------------| 
A|-------------------------------------------6-(6)---------------------------| 
F|------------------------------------9/10\9----9----------------------------| 
C|--------------------------------8------------------------------------------| 
G|--6----------(5Ho7)---(7Ho8)------7----------------------------------------| 
C|----3-0-0--0--------0--------0-8-------------------------------------------| 


Chorus 

D|----------------------------------------------------------------------------------------| 
A|----------------------------------------------------------------------------------------| 
F|----------------------------------------------------------------------------------------| 
C|--10-10-10-10------------------------------12-12-12-12-------12--12--12--12-------| 
G|--8--8--8--8--(X2)--12--12--12--12-(X2)--8--8--8--8--(X2)--10--10--10--10-(X2)--| 
C|--0--0--0--0--------10--10--10--10-------8--8--8--8--------10--10--10--10-------| 


Breakdown 

D|-------------------------------------------| 
A|-------------------------------------------| 
F|-------------------------------------------| 
C|-------------------------------------------| 
G|-------------------------------------------| 
C|--0-0-0-0--10-12//(5)-(X3)--5-7-5-7/8-7--| 

D|----------------------------------------------------------| 
A|----------------------------------------------------------| 
F|----------------------------------------------------------| 
C|----------------------------------------------------------| 
G|----------------------------------------------------------| 
C|--0-0-0-0--10-12//(5)-(X3)--5-7-5-7--7b(P.Harm)---------| 


Outro 

D|---------------------------------------------------------------------------| 
A|---------------------------------------------------------------------------| 
F|---------------------------------------------------------------------------| 
C|---------------------------------------------------------------------------| 
G|---------------------------------------------------------------------------| 
C|--{0-0--0-10-12//(5)-(X3)--5-7-5-7/8\7Ho5Po0}-(X4)-----------------------| 

D|---------------------------------------------------------------------------| 
A|---------------------------------------------------------------------------| 
F|---------------------------------------------------------------------------| 
C|---------------------------------------------------------------------------| 
G|---------------------------------------------------------------------------| 
C|---------------------------------------------------------------------------| 



************************************ 

| (n)  Ghost note 
| /    Slide up 
| \    Slide down 

************************************ 
  

top 5 | deadly circus fire
top rock'n roll
Outras músicas do artista letras do(a) Deadly Circus Fire
Top cifras »Top artistas »
Petaxxon Comunicação Online
Cifras.com.br - Melhor e mais completo site de cifras e tablaturas do Brasil
Mais de 1 milhão de acordes de músicas cadastradas desde 2003
As informações contidas no nosso site são colaborações de seus usuários e podem conter erros, sendo assim, não nos responsabilizamos sobre nenhuma destas.
close
menos
mais
close
Cor dos acordes:

Cor da letra:

 

save
close
close
 
redimensionar