Cifras e Tablaturas
Deas Vail

Deas Vail

The Things You Were

Cifras Cancelar Versão de Impressão

Deas Vail - The Things You Were

Tom: Em

  			Intro 
   Em9                       Em9                       G                           G 
e|-------------------------|-------------------------|---------------------------|---------------------------| 
B|-------------------------|-------------------------|---------------------------|---------------------------| 
G|-------------------------|-------------------------|---------------------------|---------------------------| 
D|-2h4----4-----4----4---4-|-2h4-4-----4--7-7-9-9-7\-|----0----0----0----0----0--|-----0---0----0----0----0--| 
A|-------------------------|-------------------------|---------------------------|---------------------------| 
E|------3-----3----3----3--|---------3---------------|-3-3--3-3--3-3--3-3--3-3---|-3-3--3-3--3-3--3-3--3-3---| 

verse 1 
   It's making perfect sense why I'm putting this one off 

Guitar 1 
   Em9                       Em9                       G                           G 
e|-------------------------|-------------------------|---------------------------|---------------------------| 
B|-------------------------|-------------------------|---------------------------|---------------------------| 
G|-------------------------|-------------------------|---------------------------|---------------------------| 
D|-2h4----4-----4----4---4-|-2h4-4----4----4----4---4|----0----0----0----0----0--|-----0---0----0----0----0--| 
A|-------------------------|-------------------------|---------------------------|---------------------------| 
E|------3-----3----3----3--|--------3----3----3----3-|-3-3--3-3--3-3--3-3--3-3---|-3-3--3-3--3-3--3-3--3-3---| 

  I'm going to take that second chance, before the day is done                          I think to myself 

   Em9                       Em9                       G                           G 
e|-------------------------|-------------------------|---------------------------|---------------------------| 
B|-------------------------|-------------------------|---------------------------|---------------------------| 
G|-------------------------|-------------------------|---------------------------|---------------------------| 
D|-2h4----4-----4----4---4-|-2h4-----4----4----4---4-|----0----0----0----0----0--|-----0---0----0----0----0--| 
A|-------------------------|-------------------------|---------------------------|---------------------------| 
E|------3-----3----3----3--|-------3----3----3----3--|-3-3--3-3--3-3--3-3--3-3---|-3-3--3-3--3-3--3-3--3-3---| 

  Maybe this is love,         or maybe it's something else 
Guitar 1 
   G                         G                         Em9                         Em9 
e|-------------------------|-------------------------|---------------------------|---------------------------| 
B|-------------------------|-------------------------|---------------------------|---------------------------| 
G|-------------------------|-------------------------|---------------------------|---------------------------| 
D|----0----0----0----0----0|----0----0----0----0----0|-2h4-4----4-----4----4---4-|-2h4-4----4----4----4----4-| 
A|-------------------------|-------------------------|---------------------------|---------------------------| 
E|-3-3--3-3--3-3--3-3--3-3-|-3-3--3-3--3-3--3-3--3-3-|--------3-----3----3----3--|---------3----3----3----3--| 

Guitar 2 
   D                         D7                         D7                         D7 
e|------------------------|-------------------5-----|----------------------------|---------------------------| 
B|--------------------5-7-|---------------------7-5-|------------------------5-7-|----------------------8-7--| 
G|-----7------------------|-------------------------|----------------------------|-------------------------7-| 
D|---7-----5-7---5-7------|---5-7---5-7---7---------|---5-7--5-7-7--5-7--5-------|---5-7--5-7-7--5-7--5------| 
A|-7-----7-----7----------|-7-----7-----7-----------|-7----7----7-7-----7--------|-7----7----7-7----7--------| 
E|------------------------|-------------------------|----------------------------|---------------------------| 

verse 2 
   I slowly come apart,      and I'm trying to let go 

Guitar 1 
   Em9                       Em9                       G                           G 
e|-------------------------|-------------------------|---------------------------|---------------------------| 
B|-------------------------|-------------------------|---------------------------|---------------------------| 
G|-------------------------|-------------------------|---------------------------|---------------------------| 
D|-2h4----4-----4----4---4-|-2h4-4-----4--7-7-9-9-7\-|----0----0----0----0----0--|-----0---0----0----0----0--| 
A|-------------------------|-------------------------|---------------------------|---------------------------| 
E|------3-----3----3----3--|---------3---------------|-3-3--3-3--3-3--3-3--3-3---|-3-3--3-3--3-3--3-3--3-3---| 

   What if this is love -- what I barely believe in? 

Guitar 1 
   G                         G 
e|-------------------------|-------------------------| 
B|-------------------------|-------------------------| 
G|-------------------------|-------------------------| 
D|----0----0----0----0----0|-----0---0----0----0----0| 
A|-------------------------|-------------------------| 
E|-3-3--3-3--3-3--3-3--3-3-|-3-3--3-3--3-3--3-3--3-3-| 

Guitar 2 
   D                         D7 
e|------------------------|-------------------5-----| 
B|--------------------5-7-|---------------------7-5-| 
G|-----7------------------|-------------------------| 
D|---7-----5-7---5-7------|---5-7---5-7---7---------| 
A|-7-----7-----7----------|-7-----7-----7-----------| 
E|------------------------|-------------------------| 

Chorus 
You were ordinary 

Guitar 1 & 2 
   D5                   Dmaj7   B5                  G5 
e|----------------------------|---------------------------| 
B|----------------------------|---------------------------| 
G|-7-7-7-7-7-7-7-7-7----6-6-6-|-4-4-4-4-4-4-4-4-4---------| 
D|-7-7-7-7-7-7-7-7-7----7-7-7-|-4-4-4-4-4-4-4-4-4---5-5-5-| 
A|-5-5-5-5-5-5-5-5-5----5-5-5-|-2-2-2-2-2-2-2-2-2---5-5-5-| 
E|----------------------------|---------------------3-3-3-| 

'Til you came and saved me 
   D5                   F#5     B5                  G5 
e|----------------------------|---------------------------| 
B|----------------------------|---------------------------| 
G|-7-7-7-7-7-7-7-7-7--11-11-11|-4-4-4-4-4-4-4-4-4---------| 
D|-7-7-7-7-7-7-7-7-7--11-11-11|-4-4-4-4-4-4-4-4-4---5-5-5-| 
A|-5-5-5-5-5-5-5-5-5--9--9--9-|-2-2-2-2-2-2-2-2-2---5-5-5-| 
E|----------------------------|---------------------3-3-3-| 

This is not what it seems 
   D5                   Dmaj7   B5                  G5 
e|----------------------------|---------------------------| 
B|----------------------------|---------------------------| 
G|-7-7-7-7-7-7-7-7-7----6-6-6-|-4-4-4-4-4-4-4-4-4---------| 
D|-7-7-7-7-7-7-7-7-7----7-7-7-|-4-2-4-4-4-4-4-4-4---5-5-5-| 
A|-5-5-5-5-5-5-5-5-5----5-5-5-|-2-2-2-2-2-2-2-2-2---5-5-5-| 
E|----------------------------|---------------------3-3-3-| 

Now you've taken me by surprise and given me new life 
   D5                   F#5     B5                  G5 
e|----------------------------|---------------------------| 
B|----------------------------|---------------------------| 
G|-7-7-7-7-7-7-7-7-7--11-11-11|-4-4-4-4-4-4-4-4-4---------| 
D|-7-7-7-7-7-7-7-7-7--11-11-11|-4-4-4-4-4-4-4-4-4---5-5-5-| 
A|-5-5-5-5-5-5-5-5-5--9--9--9-|-2-2-2-2-2-2-2-2-2---5-5-5-| 
E|----------------------------|---------------------3-3-3-| 

yeah 
   D5 
e|----------------------------| 
B|----------------------------| 
G|-7~-------------------------| 
D|-7~-------------------------| 
A|-5~-------------------------| 
E|----------------------------| 

verse 3 
I turned every light on, but I still can't find my way 

Guitar 1 
   Em9                       Em9                       G                           G 
e|-------------------------|-------------------------|---------------------------|---------------------------| 
B|-------------------------|-------------------------|---------------------------|---------------------------| 
G|-------------------------|-------------------------|---------------------------|---------------------------| 
D|-2h4----4-----4----4---4-|-2h4-4-----4--7-7-9-9-7\-|----0----0----0----0----0--|-----0---0----0----0----0--| 
A|-------------------------|-------------------------|---------------------------|---------------------------| 
E|------3-----3----3----3--|---------3---------------|-3-3--3-3--3-3--3-3--3-3---|-3-3--3-3--3-3--3-3--3-3---| 

I forget this, what is love? Well today could remind me 

Guitar 1 
   G                         G 
e|-------------------------|-------------------------| 
B|-------------------------|-------------------------| 
G|-------------------------|-------------------------| 
D|----0----0----0----0----0|-----0---0----0----0----0| 
A|-------------------------|-------------------------| 
E|-3-3--3-3--3-3--3-3--3-3-|-3-3--3-3--3-3--3-3--3-3-| 

Guitar 2 
   D                         D7 
e|------------------------|--------------------5-----| 
B|--------------------5-7-|----------------------7-5-| 
G|-----7------------------|--------------------------| 
D|---7-----5-7---5-7------|---5-7---5-7---7----------| 
A|-7-----7-----7----------|-7-----7-----7------------| 
E|------------------------|--------------------------| 

Chorus 
You were ordinary 

Guitar 1 & 2 
   D5                   Dmaj7   B5                  G5 
e|----------------------------|---------------------------| 
B|----------------------------|---------------------------| 
G|-7-7-7-7-7-7-7-7-7----6-6-6-|-4-4-4-4-4-4-4-4-4---------| 
D|-7-7-7-7-7-7-7-7-7----7-7-7-|-4-4-4-4-4-4-4-4-4---5-5-5-| 
A|-5-5-5-5-5-5-5-5-5----5-5-5-|-2-2-2-2-2-2-2-2-2---5-5-5-| 
E|----------------------------|---------------------3-3-3-| 

'Til you came and saved me 
   D5                   F#5     B5                  G5 
e|----------------------------|---------------------------| 
B|----------------------------|---------------------------| 
G|-7-7-7-7-7-7-7-7-7--11-11-11|-4-4-4-4-4-4-4-4-4---------| 
D|-7-7-7-7-7-7-7-7-7--11-11-11|-4-4-4-4-4-4-4-4-4---5-5-5-| 
A|-5-5-5-5-5-5-5-5-5--9--9--9-|-2-2-2-2-2-2-2-2-2---5-5-5-| 
E|----------------------------|---------------------3-3-3-| 

This is not what it seems 
   D5                   Dmaj7   B5                  G5 
e|----------------------------|---------------------------| 
B|----------------------------|---------------------------| 
G|-7-7-7-7-7-7-7-7-7----6-6-6-|-4-4-4-4-4-4-4-4-4---------| 
D|-7-7-7-7-7-7-7-7-7----7-7-7-|-4-2-4-4-4-4-4-4-4---5-5-5-| 
A|-5-5-5-5-5-5-5-5-5----5-5-5-|-2-2-2-2-2-2-2-2-2---5-5-5-| 
E|----------------------------|---------------------3-3-3-| 

Now you've taken me by surprise and given me new life 
   D5                   F#5     B5                  G5 
e|----------------------------|---------------------------| 
B|----------------------------|---------------------------| 
G|-7-7-7-7-7-7-7-7-7--11-11-11|-4-4-4-4-4-4-4-4-4---------| 
D|-7-7-7-7-7-7-7-7-7--11-11-11|-4-4-4-4-4-4-4-4-4---5-5-5-| 
A|-5-5-5-5-5-5-5-5-5--9--9--9-|-2-2-2-2-2-2-2-2-2---5-5-5-| 
E|----------------------------|---------------------3-3-3-| 

yeah 
   D5 
e|----------------------------| 
B|----------------------------| 
G|-7~-------------------------| 
D|-7~-------------------------| 
A|-5~-------------------------| 
E|----------------------------| 

Bridge 
Guitar 1 (with delay) 

                                                                        It's something I live for.. 
e|-------17---17-17---17|---17-17-17-15-14-----|-------17---17-17---17|---17-17-17-15-14-----| 
B|----15----------------|-----------------17-15|----15----------------|-----------------17-15| 
G|-14------14-------14--|-14-------------------|-14------14-------14--|-14-------------------| 
D|----------------------|----------------------|----------------------|----------------------| 
A|----------------------|----------------------|----------------------|----------------------| 
E|----------------------|----------------------|----------------------|----------------------| 

Bah bah bah da            bah da ooh ooh ooh     Bah bah bad da        bah da woah 
                                                                              It's something I live for.. 
e|-------17---17-17---17|---17-17-17-15-14-----|-------17---17-17---17|---17-17-17-15-14-----| 
B|----15----------------|-----------------17-15|----15----------------|-----------------17-15| 
G|-14------14-------14--|-14-------------------|-14------14-------14--|-14-------------------| 
D|----------------------|----------------------|----------------------|----------------------| 
A|----------------------|----------------------|----------------------|----------------------| 
E|----------------------|----------------------|----------------------|----------------------| 

Bah bah bah da            bah da ooh ooh ooh     Bah bah bad da        bah da woah 
                                                                              It's something I live for.. 
e|-------17---17-17---17|---17-17-17-15-14-----|-------17---17-17---17|---17-17-17-15-14-----| 
B|----15----------------|-----------------17-15|----15----------------|-----------------17-15| 
G|-14------14-------14--|-14-------------------|-14------14-------14--|-14-------------------| 
D|----------------------|----------------------|----------------------|----------------------| 
A|----------------------|----------------------|----------------------|----------------------| 
E|----------------------|----------------------|----------------------|----------------------| 

Bah bah bah da            bah da ooh ooh ooh     Bah bah bad da        bah da woah 
                                                                              It's something I live for.. 
e|-------17---17-17---17|---17-17-17-15-14-----|-------17---17-17---17|---17-17-17-15-14-----| 
B|----15----------------|-----------------17-15|----15----------------|-----------------17-15| 
G|-14------14-------14--|-14-------------------|-14------14-------14--|-14-------------------| 
D|----------------------|----------------------|----------------------|----------------------| 
A|----------------------|----------------------|----------------------|----------------------| 
E|----------------------|----------------------|----------------------|----------------------| 

Bah bah bah da            bah da ooh ooh ooh     Bah bah bad da        bah da woah 
                                                                              It's something I live for.. 
e|-------17---17-17---17|---17-17-17-15-14-----|-------17---17-17---17|---17-17-17-15-14-----| 
B|----15----------------|-----------------17-15|----15----------------|-----------------17-15| 
G|-14------14-------14--|-14-------------------|-14------14-------14--|-14-------------------| 
D|----------------------|----------------------|----------------------|----------------------| 
A|----------------------|----------------------|----------------------|----------------------| 
E|----------------------|----------------------|----------------------|----------------------| 

 Bah bah bah da            bah da ooh ooh ooh     Bah bah bad da        bah da woah 

e|-------17---17-17---17|---17-17-17-15-14-----|-------17---17-17---17|---17-17-17-15-14-----| 
B|----15----------------|-----------------17-15|----15----------------|-----------------17-15| 
G|-14------14-------14--|-14-------------------|-14------14-------14--|-14-------------------| 
D|----------------------|----------------------|----------------------|----------------------| 
A|----------------------|----------------------|----------------------|----------------------| 
E|----------------------|----------------------|----------------------|----------------------| 


Chorus 
You were ordinary 

Guitar 1 & 2 
   D5                   Dmaj7   B5                  G5 
e|----------------------------|---------------------------| 
B|----------------------------|---------------------------| 
G|-7-7-7-7-7-7-7-7-7----6-6-6-|-4-4-4-4-4-4-4-4-4---------| 
D|-7-7-7-7-7-7-7-7-7----7-7-7-|-4-4-4-4-4-4-4-4-4---5-5-5-| 
A|-5-5-5-5-5-5-5-5-5----5-5-5-|-2-2-2-2-2-2-2-2-2---5-5-5-| 
E|----------------------------|---------------------3-3-3-| 

'Til you came and saved me 
   D5                   F#5     B5                  G5 
e|----------------------------|---------------------------| 
B|----------------------------|---------------------------| 
G|-7-7-7-7-7-7-7-7-7--11-11-11|-4-4-4-4-4-4-4-4-4---------| 
D|-7-7-7-7-7-7-7-7-7--11-11-11|-4-4-4-4-4-4-4-4-4---5-5-5-| 
A|-5-5-5-5-5-5-5-5-5--9--9--9-|-2-2-2-2-2-2-2-2-2---5-5-5-| 
E|----------------------------|---------------------3-3-3-| 

This is not what it seems 
   D5                   Dmaj7   B5                  G5 
e|----------------------------|---------------------------| 
B|----------------------------|---------------------------| 
G|-7-7-7-7-7-7-7-7-7----6-6-6-|-4-4-4-4-4-4-4-4-4---------| 
D|-7-7-7-7-7-7-7-7-7----7-7-7-|-4-2-4-4-4-4-4-4-4---5-5-5-| 
A|-5-5-5-5-5-5-5-5-5----5-5-5-|-2-2-2-2-2-2-2-2-2---5-5-5-| 
E|----------------------------|---------------------3-3-3-| 

Now you've taken me by surprise and given me new life 
   D5                   F#5     B5                  G5 
e|----------------------------|---------------------------| 
B|----------------------------|---------------------------| 
G|-7-7-7-7-7-7-7-7-7--11-11-11|-4-4-4-4-4-4-4-4-4---------| 
D|-7-7-7-7-7-7-7-7-7--11-11-11|-4-4-4-4-4-4-4-4-4---5-5-5-| 
A|-5-5-5-5-5-5-5-5-5--9--9--9-|-2-2-2-2-2-2-2-2-2---5-5-5-| 
E|----------------------------|---------------------3-3-3-| 

yeah 
   D5 
e|----------------------------| 
B|----------------------------| 
G|-7~-------------------------| 
D|-7~-------------------------| 
A|-5~-------------------------| 
E|----------------------------| 


Outro 
yeah... 

Guitar 1 
   D5 
e|----------------------------|----------------------------| 
B|----------------------------|----------------------------| 
G|-7~~~~~~~~~~~~~~~~~~~~~~~~~~|~~~~~~~~~~~~~~~~~~~~~~~~~~~~| 
D|-7~~~~~~~~~~~~~~~~~~~~~~~~~~|~~~~~~~~~~~~~~~~~~~~~~~~~~~~| 
A|-5~~~~~~~~~~~~~~~~~~~~~~~~~~|~~~~~~~~~~~~~~~~~~~~~~~~~~~~| 
E|----------------------------|----------------------------| 

                                                   Given me new life 

Guitar 2 (with delay) 
e|---17--17--17--17-----------|---17--17--17--17--17--17--17--17| 
B|----------------------------|---------------------------------| 
G|-14--14--14--14-------------|-14--14--14--14--14--14--14--14--| 
D|----------------------------|---------------------------------| 
A|----------------------------|---------------------------------| 
E|----------------------------|---------------------------------| 

 yeah. 

Guitar 2 (with delay)                                       Given me new life. 
e|---17--17--17--17--17--17--17--17|---17--17--17--17--17--17--17--17|-17~-----------------------------| 
B|---------------------------------|---------------------------------|---------------------------------| 
G|-14--14--14--14--14--14--14--14--|-14--14--14--14--14--14--14--14--|---------------------------------| 
D|---------------------------------|---------------------------------|---------------------------------| 
A|---------------------------------|---------------------------------|---------------------------------| 
E|---------------------------------|---------------------------------|---------------------------------| 

*********************************** 

| \   Slide-down 
| h   Hammer-on 
| ~   Vibrato 

*********************************** 
    	
fixar
fixar inscrever-se

enviado porenviado por: ubirbomfim
cifra enviadaCorrigida por: sem correções
logo top cifrasComente
ico música do artistaMúsicas deste artista
ico curtiuCurtiu?
ico destaqueDestaque
Petaxxon Comunicação Online

Cifras.com.br - Melhor e mais completo site de cifras e tablaturas do Brasil Mais de 1 milhão de acordes de músicas cadastradas desde 2003
As informações contidas no nosso site são colaborações de seus usuários e podem conter erros, sendo assim, não nos responsabilizamos sobre nenhuma destas.

close
menos
mais
close
Cor dos acordes:

Cor da letra:

close
Alinhar acordes a direita Alinhar acordes a esquerda Alinhar acordes em baixo Alinhar acordes no topo
close
  Mostrar todos os acordes Esconder acordes muito fáceis Esconder acordes fáceis Esconder acordes intermediários
redimensionar
glossário