Cifras e Tablaturas
Declan McKenna

Declan McKenna

Humongous

Cifras Cancelar Versão de Impressão
cifras

Declan McKenna - Humongous

fixar na tela  
Exibindo: vídeo-aula ver clipes redimensionar
  Verse 
  Dm                      F                       C                       G 
e|-1-----1--1-----1--1--1|-1-----1--1-----1--1--1|-0-----0--0-----0--0--0|-3-----3--3-----3--3--3| 
B|-3-----3--3-----3--3--3|-1-----1--1-----1--1--1|-1-----1--1-----1--1--1|-0-----0--0-----0--0--0| 
G|-2-----2--2-----2--2--2|-2-----2--2-----2--2--2|-0-----0--0-----0--0--0|-0-----0--0-----0--0--0| 
D|-0-----0--0-----0--0--0|-3-----3--3-----3--3--3|-2-----2--2-----2--2--2|-0-----0--0-----0--0--0| 
A|-----------------------|-3-----3--3-----3--3--3|-3-----3--3-----3--3--3|-2-----2--2-----2--2--2| 
E|-----------------------|-1-----1--1-----1--1--1|-----------------------|-3-----3--3-----3--3--3| 
  Don't tag me along to your show, to your broadcast 

  Am                      F                       Em                      Em 
e|-0-----0--0-----0--0--0|-1-----1--1-----1--1--1|-0-----0--0-----0--0--0|-0-----0--0-----0--0--0| 
B|-1-----1--1-----1--1--1|-1-----1--1-----1--1--1|-0-----0--0-----0--0--0|-0-----0--0-----0--0--0| 
G|-2-----2--2-----2--2--2|-2-----2--2-----2--2--2|-0-----0--0-----0--0--0|-0-----0--0-----0--0--0| 
D|-2-----2--2-----2--2--2|-3-----3--3-----3--3--3|-2-----2--2-----2--2--2|-2-----2--2-----2--2--2| 
A|-0-----0--0-----0--0--0|-3-----3--3-----3--3--3|-2-----2--2-----2--2--2|-2-----2--2-----2--2--2| 
E|-----------------------|-1-----1--1-----1--1--1|-0-----0--0-----0--0--0|-0-----0--0-----0--0--0| 
  I know, I'm good at letting go 

  Dm                      F                       C                       G           G# 
e|-1-----1--1-----1--1--1|-1-----1--1-----1--1--1|-0-----0--0-----0--0--0|-3-----3--3--4-----4--4| 
B|-3-----3--3-----3--3--3|-1-----1--1-----1--1--1|-1-----1--1-----1--1--1|-0-----0--0--1-----1--1| 
G|-2-----2--2-----2--2--2|-2-----2--2-----2--2--2|-0-----0--0-----0--0--0|-0-----0--0--0-----0--0| 
D|-0-----0--0-----0--0--0|-3-----3--3-----3--3--3|-2-----2--2-----2--2--2|-0-----0--0--0-----0--0| 
A|-----------------------|-3-----3--3-----3--3--3|-3-----3--3-----3--3--3|-2-----2--2--3-----3--3| 
E|-----------------------|-1-----1--1-----1--1--1|-----------------------|-3-----3--3--4-----4--4| 
  Don't tag me along with your rules, with your promise 

  Am                      Em                      C                       Em 
e|-0-----0--0-----0--0--0|-0-----0--0-----0--0--0|-0-----0--0-----0--0--0|-0-----0--0-----0--0--0| 
B|-1-----1--1-----1--1--1|-0-----0--0-----0--0--0|-1-----1--1-----1--1--1|-0-----0--0-----0--0--0| 
G|-2-----2--2-----2--2--2|-0-----0--0-----0--0--0|-0-----0--0-----0--0--0|-0-----0--0-----0--0--0| 
D|-2-----2--2-----2--2--2|-2-----2--2-----2--2--2|-2-----2--2-----2--2--2|-2-----2--2-----2--2--2| 
A|-0-----0--0-----0--0--0|-2-----2--2-----2--2--2|-3-----3--3-----3--3--3|-2-----2--2-----2--2--2| 
E|-----------------------|-0-----0--0-----0--0--0|-----------------------|-0-----0--0-----0--0--0| 
  I swear you spend too much time on your phone and on your hair 

Chorus 
  Dm                      G                       Am           Em         Em 
e|-1-----1--1-----1--1--1|-3-----3--3-----3--3--3|-0-----0--0--0-----0--0|-0-----0--0-----0--0--0| 
B|-3-----3--3-----3--3--3|-0-----0--0-----0--0--0|-1-----1--1--0-----0--0|-0-----0--0-----0--0--0| 
G|-2-----2--2-----2--2--2|-0-----0--0-----0--0--0|-2-----2--2--0-----0--0|-0-----0--0-----0--0--0| 
D|-0-----0--0-----0--0--0|-0-----0--0-----0--0--0|-2-----2--2--2-----2--2|-2-----2--2-----2--2--2| 
A|-----------------------|-2-----2--2-----2--2--2|-0-----0--0--2-----2--2|-2-----2--2-----2--2--2| 
E|-----------------------|-3-----3--3-----3--3--3|-------------0-----0--0|-0-----0--0-----0--0--0| 
  Do you care? I'm big, humongous, enormous and small 

  F                       F           G           Am          Em         Em 
e|-1-----1--1-----1--1--1|-1-----1--1--3-----3--3|-0-----0--0--0-----0--0|-0-----0--0-----0--0--0| 
B|-1-----1--1-----1--1--1|-1-----1--1--0-----0--0|-1-----1--1--0-----0--0|-0-----0--0-----0--0--0| 
G|-2-----2--2-----2--2--2|-2-----2--2--0-----0--0|-2-----2--2--0-----0--0|-0-----0--0-----0--0--0| 
D|-3-----3--3-----3--3--3|-3-----3--3--0-----0--0|-2-----2--2--2-----2--2|-2-----2--2-----2--2--2| 
A|-3-----3--3-----3--3--3|-3-----3--3--2-----2--2|-0-----0--0--2-----2--2|-2-----2--2-----2--2--2| 
E|-1-----1--1-----1--1--1|-1-----1--1--3-----3--3|-------------0-----0--0|-0-----0--0-----0--0--0| 
  And it's not fair that I am nothing and nobody's there 

  Dm                      G                       Am           Em         Em 
e|-1-----1--1-----1--1--1|-3-----3--3-----3--3--3|-0-----0--0--0-----0--0|-0-----0--0-----0--0--0| 
B|-3-----3--3-----3--3--3|-0-----0--0-----0--0--0|-1-----1--1--0-----0--0|-0-----0--0-----0--0--0| 
G|-2-----2--2-----2--2--2|-0-----0--0-----0--0--0|-2-----2--2--0-----0--0|-0-----0--0-----0--0--0| 
D|-0-----0--0-----0--0--0|-0-----0--0-----0--0--0|-2-----2--2--2-----2--2|-2-----2--2-----2--2--2| 
A|-----------------------|-2-----2--2-----2--2--2|-0-----0--0--2-----2--2|-2-----2--2-----2--2--2| 
E|-----------------------|-3-----3--3-----3--3--3|-------------0-----0--0|-0-----0--0-----0--0--0| 
  Do you care? I'm big, humongous, enormous and small 

  F                       F           G           Am          Em         Em 
e|-1-----1--1-----1--1--1|-1-----1--1--3-----3--3|-0-----0--0--0-----0--0|-0-----0--0-----0--0--0| 
B|-1-----1--1-----1--1--1|-1-----1--1--0-----0--0|-1-----1--1--0-----0--0|-0-----0--0-----0--0--0| 
G|-2-----2--2-----2--2--2|-2-----2--2--0-----0--0|-2-----2--2--0-----0--0|-0-----0--0-----0--0--0| 
D|-3-----3--3-----3--3--3|-3-----3--3--0-----0--0|-2-----2--2--2-----2--2|-2-----2--2-----2--2--2| 
A|-3-----3--3-----3--3--3|-3-----3--3--2-----2--2|-0-----0--0--2-----2--2|-2-----2--2-----2--2--2| 
E|-1-----1--1-----1--1--1|-1-----1--1--3-----3--3|-------------0-----0--0|-0-----0--0-----0--0--0| 
  And it's not fair that I am nothing and nobody's there.  Do you care? 

Verse 
  Dm                      F                       C                       G 
e|-------5--------5------|-----------------------|-----------------------|------10-------10------| 
B|-------6--------6------|-------6--------6------|-------5--------5------|------10-------10------| 
G|-------7--------7------|-------5--------5------|-------5--------5------|-------7--------7------| 
D|-----------------------|-------3--------3------|-------5--------5------|-----------------------| 
A|-----------------------|-----------------------|-----------------------|-----------------------| 
E|-----------------------|-----------------------|-----------------------|-----------------------| 
  Don't tell me I'm not, I'm not smart or I'm not worthy 

  Am                      F                       Em                      Em 
e|-------5--------5------|-------5--------5------|------12-------12------|------------12---------| 
B|-------5--------5------|-------6--------6------|------12-------12------|------------12---------| 
G|-------5--------5------|-------5--------5------|------12-------12------|------------12---------| 
D|-----------------------|-----------------------|-----------------------|-----------------------| 
A|-----------------------|-----------------------|-----------------------|-----------------------| 
E|-----------------------|-----------------------|-----------------------|-----------------------| 
  I know, I couldn't let that go 

  Dm                      F                       C                       G 
e|-------5--------5------|-----------------------|-----------------------|-----------------------| 
B|-------6--------6------|-------6--------6------|-------5--------5------|-------8-----------9---| 
G|-------7--------7------|-------5--------5------|-------5--------5------|-------7-----------8---| 
D|-----------------------|-------3--------3------|-------5--------5------|-------5-----------6---| 
A|-----------------------|-----------------------|-----------------------|-----------------------| 
E|-----------------------|-----------------------|-----------------------|-----------------------| 
  And then tag me along with your hate and with your envy 

  Am                      Em                      C                       Em 
e|-------5--------5------|-------3--------3------|-----------------------|12---------------------| 
B|-------5--------5------|-------5--------5------|-------5--------5------|12---------------------| 
G|-------5--------5------|-------4--------4------|-------5--------5------|12---------------------| 
D|-----------------------|-----------------------|-------5--------5------|14---------------------| 
A|-----------------------|-----------------------|-----------------------|-----------------------| 
E|-----------------------|-----------------------|-----------------------|-----------------------| 
  I swear to God I cannot take you anywhere 

Chorus 
  Dm                      G                       Am           Em         Em 
e|-1-----1--1-----1--1--1|-3-----3--3-----3--3--3|-0-----0--0--0-----0--0|-0-----0--0-----0--0--0| 
B|-3-----3--3-----3--3--3|-0-----0--0-----0--0--0|-1-----1--1--0-----0--0|-0-----0--0-----0--0--0| 
G|-2-----2--2-----2--2--2|-0-----0--0-----0--0--0|-2-----2--2--0-----0--0|-0-----0--0-----0--0--0| 
D|-0-----0--0-----0--0--0|-0-----0--0-----0--0--0|-2-----2--2--2-----2--2|-2-----2--2-----2--2--2| 
A|-----------------------|-2-----2--2-----2--2--2|-0-----0--0--2-----2--2|-2-----2--2-----2--2--2| 
E|-----------------------|-3-----3--3-----3--3--3|-------------0-----0--0|-0-----0--0-----0--0--0| 
  Do you care? I'm big, humongous, enormous and small 

  F                       F           G           Am          Em          Em 
e|-1-----1--1-----1--1--1|-1-----1--1--3-----3--3|-0-----0--0--0-----0--0|-0-----0--0-----0--0--0| 
B|-1-----1--1-----1--1--1|-1-----1--1--0-----0--0|-1-----1--1--0-----0--0|-0-----0--0-----0--0--0| 
G|-2-----2--2-----2--2--2|-2-----2--2--0-----0--0|-2-----2--2--0-----0--0|-0-----0--0-----0--0--0| 
D|-3-----3--3-----3--3--3|-3-----3--3--0-----0--0|-2-----2--2--2-----2--2|-2-----2--2-----2--2--2| 
A|-3-----3--3-----3--3--3|-3-----3--3--2-----2--2|-0-----0--0--2-----2--2|-2-----2--2-----2--2--2| 
E|-1-----1--1-----1--1--1|-1-----1--1--3-----3--3|-------------0-----0--0|-0-----0--0-----0--0--0| 
  And it's not fair that I am nothing and nobody's there 

  Dm                      G                       Am           Em         Em 
e|-1-----1--1-----1--1--1|-3-----3--3-----3--3--3|-0-----0--0--0-----0--0|-0-----0--0-----0--0--0| 
B|-3-----3--3-----3--3--3|-0-----0--0-----0--0--0|-1-----1--1--0-----0--0|-0-----0--0-----0--0--0| 
G|-2-----2--2-----2--2--2|-0-----0--0-----0--0--0|-2-----2--2--0-----0--0|-0-----0--0-----0--0--0| 
D|-0-----0--0-----0--0--0|-0-----0--0-----0--0--0|-2-----2--2--2-----2--2|-2-----2--2-----2--2--2| 
A|-----------------------|-2-----2--2-----2--2--2|-0-----0--0--2-----2--2|-2-----2--2-----2--2--2| 
E|-----------------------|-3-----3--3-----3--3--3|-------------0-----0--0|-0-----0--0-----0--0--0| 
  Do you care? I'm big, humongous, enormous and small 

  F                       F           G           Am          Em          Em 
e|-1-----1--1-----1--1--1|-1-----1--1--3-----3--3|-0-----0--0--0-----0--0|-0-----0--0-----0--0--0| 
B|-1-----1--1-----1--1--1|-1-----1--1--0-----0--0|-1-----1--1--0-----0--0|-0-----0--0-----0--0--0| 
G|-2-----2--2-----2--2--2|-2-----2--2--0-----0--0|-2-----2--2--0-----0--0|-0-----0--0-----0--0--0| 
D|-3-----3--3-----3--3--3|-3-----3--3--0-----0--0|-2-----2--2--2-----2--2|-2-----2--2-----2--2--2| 
A|-3-----3--3-----3--3--3|-3-----3--3--2-----2--2|-0-----0--0--2-----2--2|-2-----2--2-----2--2--2| 
E|-1-----1--1-----1--1--1|-1-----1--1--3-----3--3|-------------0-----0--0|-0-----0--0-----0--0--0| 
  And it's not fair that I am nothing and nobody's there. Do you care? 

Solo 
      Dm                      G                       Am                      Em 
e|---|-----------------------|------12----10---------|-----------------------|-----------------------| 
B|---|10---------------------|------------------12---|13-12-10---------------|-9---------------------| 
G|-12|-----------------------|-----------------------|-----------------------|-----------------------| 
D|---|-----------------------|-----------------------|-----------------------|-----------------------| 
A|---|-----------------------|-----------------------|-----------------------|-----------------------| 
E|---|-----------------------|-----------------------|-----------------------|-----------------------| 

  F                       G                       Am                      Em 
e|-----------------------|13-12-10---------------|-----------------------|-----------------------| 
B|10---------------------|------------------13---|12-13-12-10--9----10---|-9---------------------| 
G|-----------------------|-----------------------|-----------------------|-----------------------| 
D|-----------------------|-----------------------|-----------------------|-----------------------| 
A|-----------------------|-----------------------|-----------------------|-----------------------| 
E|-----------------------|-----------------------|-----------------------|-----------------------| 

  Dm                      G                       Am                      Em 
e|-----------------------|------10---------------|-----------------------|-----------------------| 
B|10---------------------|------------------12---|13-12-10---------------|-9---------------------| 
G|-----------------------|-----------------------|-----------------------|-----------------------| 
D|-----------------------|-----------------------|-----------------------|-----------------------| 
A|-----------------------|-----------------------|-----------------------|-----------------------| 
E|-----------------------|-----------------------|-----------------------|-----------------------| 

  F                       G                       Am                      Em 
e|-----------------------|13-12-10---------------|------------------13---|-----------------------| 
B|10---------------------|------------------12---|13-12-10---------------|10---------------------| 
G|-----------------------|-----------------------|-----------------------|-----------------------| 
D|-----------------------|-----------------------|-----------------------|-----------------------| 
A|-----------------------|-----------------------|-----------------------|-----------------------| 
E|-----------------------|-----------------------|-----------------------|-----------------------| 

Chorus 
Piano 
  Dm                      G                       Am           Em         Em 
e|-1---------------------|-3---------------------|-0-----------0---------|(0)--------------------| 
B|-3---------------------|-0---------------------|-1-----------0---------|(0)--------------------| 
G|-2---------------------|-0---------------------|-2-----------0---------|(0)--------------------| 
D|-0---------------------|-0---------------------|-2-----------2---------|(2)--------------------| 
A|-----------------------|-2---------------------|-0-----------2---------|(2)--------------------| 
E|-----------------------|-3---------------------|-------------0---------|(0)--------------------| 
  Do you care? I'm big, humongous, enormous and small 

  F                       F           G           Am          Em          Em 
e|-1---------------------|-------------3---------|-0-----------0---------|(0)--------------------| 
B|-1---------------------|-------------0---------|-1-----------0---------|(0)--------------------| 
G|-2---------------------|-------------0---------|-2-----------0---------|(0)--------------------| 
D|-3---------------------|-------------0---------|-2-----------2---------|(2)--------------------| 
A|-3---------------------|-------------2---------|-0-----------2---------|(2)--------------------| 
E|-1---------------------|-------------3---------|-------------0---------|(0)--------------------| 
  And it's not fair that I am nothing and nobody's there 

Solo 
  Dm                      G                       Am                      Em 
e|------------------12---|10---------------------|-----------------------|-----------------------| 
B|---------10------------|---------13-------12---|12-------10------------|-----------------------| 
G|10---------------------|-----------------------|-----------------------|12-------10--------9---| 
D|-----------------------|-----------------------|-----------------------|-----------------------| 
A|-----------------------|-----------------------|-----------------------|-----------------------| 
E|-----------------------|-----------------------|-----------------------|-----------------------| 

  F                       G                       Am                      Em 
e|------------------12---|10---------------------|13-12------------------|-----------------------| 
B|---------10------------|---------13-------12---|---------12------------|------10--------9------| 
G|10---------------------|-----------------------|-----------------------|-----------------------| 
D|-----------------------|-----------------------|-----------------------|-----------------------| 
A|-----------------------|-----------------------|-----------------------|-----------------------| 
E|-----------------------|-----------------------|-----------------------|-----------------------| 
  Do you care? 

  Dm                      G                       Am                      Em 
e|------------------12---|10---------------------|-----------------------|-----------------------| 
B|---------10------------|---------13-------12---|12-------10------------|-----------------------| 
G|10---------------------|-----------------------|-----------------------|12-------10--------9---| 
D|-----------------------|-----------------------|-----------------------|-----------------------| 
A|-----------------------|-----------------------|-----------------------|-----------------------| 
E|-----------------------|-----------------------|-----------------------|-----------------------| 

  F                       G                       Am                      Em 
e|------------------12---|10---------------------|13-12------------------|-----------------------| 
B|---------10------------|---------13-------12---|---------12------------|------10--------9------| 
G|10---------------------|-----------------------|-----------------------|-----------------------| 
D|-----------------------|-----------------------|-----------------------|-----------------------| 
A|-----------------------|-----------------------|-----------------------|-----------------------| 
E|-----------------------|-----------------------|-----------------------|-----------------------| 

  F                       G                       F                       G  
e|13-12------------------|-----------------------|13-12------------------|-----------------------| 
B|---------12------------|------10--------9------|---------12------------|------10--------9------| 
G|-----------------------|-----------------------|-----------------------|-----------------------| 
D|-----------------------|-----------------------|-----------------------|-----------------------| 
A|-----------------------|-----------------------|-----------------------|-----------------------| 
E|-----------------------|-----------------------|-----------------------|-----------------------| 

  F                       G 
e|13-12------------------|-----------------------| 
B|---------12------------|------10--------9------| 
G|-----------------------|-----------------------| 
D|-----------------------|-----------------------| 
A|-----------------------|-----------------------| 
E|-----------------------|-----------------------| 

 Dm                      G                       Am                      Em 
e|------------------12---|10---------------------|-----------------------|-----------------------| 
B|---------10------------|---------13-------12---|12-------10------------|-----------------------| 
G|10---------------------|-----------------------|-----------------------|12-------10------------| 
D|-----------------------|-----------------------|-----------------------|-----------------------| 
A|-----------------------|-----------------------|-----------------------|-----------------------| 
E|-----------------------|-----------------------|-----------------------|-----------------------| 

  F                       G                       Am                      Em 
e|------------------12---|10---------------------|13-12------------------|-----------------------| 
B|---------10------------|---------13-------12---|---------12------------|------10--------9------| 
G|10---------------------|-----------------------|-----------------------|-----------------------| 
D|-----------------------|-----------------------|-----------------------|-----------------------| 
A|-----------------------|-----------------------|-----------------------|-----------------------| 
E|-----------------------|-----------------------|-----------------------|-----------------------| 

 Dm                      G                       Am                      Em 
e|------------------12---|10---------------------|-----------------------|-----------------------| 
B|---------10------------|---------13-------12---|12-------10------------|-----------------------| 
G|10---------------------|-----------------------|-----------------------|12-------10------------| 
D|-----------------------|-----------------------|-----------------------|-----------------------| 
A|-----------------------|-----------------------|-----------------------|-----------------------| 
E|-----------------------|-----------------------|-----------------------|-----------------------| 

  F                       G                       Am                      Em 
e|------------------12---|10---------------------|13-12------------------|-----------------------| 
B|---------10------------|---------13-------12---|---------12------------|------10--------9------| 
G|10---------------------|-----------------------|-----------------------|-----------------------| 
D|-----------------------|-----------------------|-----------------------|-----------------------| 
A|-----------------------|-----------------------|-----------------------|-----------------------| 
E|-----------------------|-----------------------|-----------------------|-----------------------| 

Verse 
  F5                      G5                      C5           B5         F5 
e|-----------------------|-----------------------|-----------------------|-----------------------| 
B|-----------------------|-----------------------|-----------------------|-----------------------| 
G|-----------------------|-----------------------|-5--5--5--5--4--4--4--4|-----------------------| 
D|-3--3--3--3--3--3--3--3|-5--5--5--5--5--5--5--5|-5--5--5--5--4--4--4--4|-3--3--3--3--3--3--3--3| 
A|-3--3--3--3--3--3--3--3|-5--5--5--5--5--5--5--5|-3--3--3--3--2--2--2--2|-3--3--3--3--3--3--3--3| 
E|-1--1--1--1--1--1--1--1|-3--3--3--3--3--3--3--3|-----------------------|-1--1--1--1--1--1--1--1| 
  Don't speak, don't be so broken and weak 

  F5                      G5                      C5           B5         F5 
e|-----------------------|-----------------------|-----------------------|-----------------------| 
B|-----------------------|-----------------------|-----------------------|-----------------------| 
G|-----------------------|-----------------------|-5--5--5--5--4--4--4--4|-----------------------| 
D|-3--3--3--3--3--3--3--3|-5--5--5--5--5--5--5--5|-5--5--5--5--4--4--4--4|-3--3--3--3--3--3--3--3| 
A|-3--3--3--3--3--3--3--3|-5--5--5--5--5--5--5--5|-3--3--3--3--2--2--2--2|-3--3--3--3--3--3--3--3| 
E|-1--1--1--1--1--1--1--1|-3--3--3--3--3--3--3--3|-----------------------|-1--1--1--1--1--1--1--1| 
  I'm gonna throw up. Well baby, when will you grow up? 

  F5                      G5                      C5           B5         F5 
e|-----------------------|-----------------------|-----------------------|-----------------------| 
B|-----------------------|-----------------------|-----------------------|-----------------------| 
G|-----------------------|-----------------------|-5--5--5--5--4--4--4--4|-----------------------| 
D|-3--3--3--3--3--3--3--3|-5--5--5--5--5--5--5--5|-5--5--5--5--4--4--4--4|-3--3--3--3--3--3--3--3| 
A|-3--3--3--3--3--3--3--3|-5--5--5--5--5--5--5--5|-3--3--3--3--2--2--2--2|-3--3--3--3--3--3--3--3| 
E|-1--1--1--1--1--1--1--1|-3--3--3--3--3--3--3--3|-----------------------|-1--1--1--1--1--1--1--1|  
  You've been such a joke this week 

  F5                      F5                      F5                      F5 
e|-----------------------|-----------------------|-----------------------|-----------------------| 
B|-----------------------|-----------------------|-----------------------|-----------------------| 
G|-----------------------|-----------------------|-----------------------|-----------------------| 
D|-3--3--3--3--3--3--3--3|-3--3--3--3--3--3--3--3|-3--3--3--3--3--3--3--3|-3--3--3--3--3--3--3--3| 
A|-3--3--3--3--3--3--3--3|-3--3--3--3--3--3--3--3|-3--3--3--3--3--3--3--3|-3--3--3--3--3--3--3--3|  
E|-1--1--1--1--1--1--1--1|-1--1--1--1--1--1--1--1|-1--1--1--1--1--1--1--1|-1--1--1--1--1--1--1--1|  
  You think you're funny when you're talking all loud and your nose is all runny 

Outro 
 Dm                      G                       Am                      Em 
e|------------------12---|10---------------------|-----------------------|-----------------------| 
B|---------10------------|---------13-------12---|12-------10------------|-----------------------| 
G|10---------------------|-----------------------|-----------------------|12-------10------------| 
D|-----------------------|-----------------------|-----------------------|-----------------------| 
A|-----------------------|-----------------------|-----------------------|-----------------------| 
E|-----------------------|-----------------------|-----------------------|-----------------------| 

  F                       G                       Am                      Em 
e|------------------12---|10---------------------|13-12------------------|-----------------------| 
B|---------10------------|---------13-------12---|---------12------------|------10--------9------| 
G|10---------------------|-----------------------|-----------------------|-----------------------| 
D|-----------------------|-----------------------|-----------------------|-----------------------| 
A|-----------------------|-----------------------|-----------------------|-----------------------| 
E|-----------------------|-----------------------|-----------------------|-----------------------| 

 Dm                      G                       Am                      Em 
e|------------------12---|10---------------------|-----------------------|-----------------------| 
B|---------10------------|---------13-------12---|12-------10------------|-----------------------| 
G|10---------------------|-----------------------|-----------------------|12-------10------------| 
D|-----------------------|-----------------------|-----------------------|-----------------------| 
A|-----------------------|-----------------------|-----------------------|-----------------------| 
E|-----------------------|-----------------------|-----------------------|-----------------------| 

  F                       G                       Am                      Em 
e|------------------12---|10---------------------|13-12------------------|-----------------------| 
B|---------10------------|---------13-------12---|---------12------------|------10--------9------| 
G|10---------------------|-----------------------|-----------------------|-----------------------| 
D|-----------------------|-----------------------|-----------------------|-----------------------| 
A|-----------------------|-----------------------|-----------------------|-----------------------| 
E|-----------------------|-----------------------|-----------------------|-----------------------| 


************************************ 

| (n) Ghost note 

************************************ 
  

cifra enviadasem correções
enviado porenviada por:renejunior
top 5 | declan mckenna
top rock'n roll
Outras músicas do artista letras do(a) Declan McKenna
Top cifras »Top artistas »
Petaxxon Comunicação Online
Cifras.com.br - Melhor e mais completo site de cifras e tablaturas do Brasil
Mais de 1 milhão de acordes de músicas cadastradas desde 2003
As informações contidas no nosso site são colaborações de seus usuários e podem conter erros, sendo assim, não nos responsabilizamos sobre nenhuma destas.
close
menos
mais
close
Cor dos acordes:

Cor da letra:

 

save
close
close
 
redimensionar